ISO-10303-21;
HEADER;
FILE_DESCRIPTION (( 'STEP AP203' ),
    '1' );
FILE_NAME ('7012X5.STEP',
    '2017-11-07T21:38:33',
    ( '' ),
    ( '' ),
    'SwSTEP 2.0',
    'SolidWorks 2016',
    '' );
FILE_SCHEMA (( 'CONFIG_CONTROL_DESIGN' ));
ENDSEC;

DATA;
#1 = AXIS2_PLACEMENT_3D ( 'NONE', #181, #2, #83 ) ;
#2 = DIRECTION ( 'NONE',  ( 1.255444850029532900E-016, -1.000000000000000000, 0.0000000000000000000 ) ) ;
#3 = PLANE ( 'NONE',  #1 ) ;
#4 = LINE ( 'NONE', #74, #304 ) ;
#5 = VERTEX_POINT ( 'NONE', #172 ) ;
#6 = LINE ( 'NONE', #240, #76 ) ;
#7 = MANIFOLD_SOLID_BREP ( 'Boss-Extrude2', #59 ) ;
#8 = VECTOR ( 'NONE', #343, 39.37007874015748100 ) ;
#9 = VECTOR ( 'NONE', #15, 39.37007874015748100 ) ;
#10 = CALENDAR_DATE ( 2017, 7, 11 ) ;
#11 = VERTEX_POINT ( 'NONE', #268 ) ;
#12 = ORIENTED_EDGE ( 'NONE', *, *, #134, .F. ) ;
#13 = CARTESIAN_POINT ( 'NONE',  ( -0.03949999999999997300, 0.01200000000000000000, 0.02449999999999999700 ) ) ;
#14 = CARTESIAN_POINT ( 'NONE',  ( 0.02550000000000000500, 0.01200000000000000500, -0.02450000000000000400 ) ) ;
#15 = DIRECTION ( 'NONE',  ( 0.0000000000000000000, 0.0000000000000000000, -1.000000000000000000 ) ) ;
#16 = FACE_OUTER_BOUND ( 'NONE', #80, .T. ) ;
#17 = APPROVAL_ROLE ( '' ) ;
#18 =( GEOMETRIC_REPRESENTATION_CONTEXT ( 3 ) GLOBAL_UNCERTAINTY_ASSIGNED_CONTEXT ( ( #224 ) ) GLOBAL_UNIT_ASSIGNED_CONTEXT ( ( #25, #219, #220 ) ) REPRESENTATION_CONTEXT ( 'NONE', 'WORKASPACE' ) );
#19 = CLOSED_SHELL ( 'NONE', ( #366, #124, #155, #193, #72, #231 ) ) ;
#20 = DIRECTION ( 'NONE',  ( 0.0000000000000000000, -1.000000000000000000, 0.0000000000000000000 ) ) ;
#21 = PLANE ( 'NONE',  #370 ) ;
#22 = ORIENTED_EDGE ( 'NONE', *, *, #247, .T. ) ;
#23 = COORDINATED_UNIVERSAL_TIME_OFFSET ( 8, 0, .BEHIND. ) ;
#24 = VECTOR ( 'NONE', #388, 39.37007874015748100 ) ;
#25 =( CONVERSION_BASED_UNIT ( 'INCH', #229 ) LENGTH_UNIT ( ) NAMED_UNIT ( #186 ) );
#26 = ORIENTED_EDGE ( 'NONE', *, *, #96, .T. ) ;
#27 = CARTESIAN_POINT ( 'NONE',  ( -0.02549999999999999500, 0.01200000000000000000, -0.02450000000000000400 ) ) ;
#28 = DIRECTION ( 'NONE',  ( 0.0000000000000000000, -1.000000000000000000, 0.0000000000000000000 ) ) ;
#29 = DESIGN_CONTEXT ( 'detailed design', #378, 'design' ) ;
#30 = EDGE_LOOP ( 'NONE', ( #156, #198, #233, #44 ) ) ;
#31 = DATE_AND_TIME ( #40, #341 ) ;
#32 = LINE ( 'NONE', #325, #87 ) ;
#33 = EDGE_CURVE ( 'NONE', #11, #295, #278, .T. ) ;
#34 = DATE_AND_TIME ( #346, #310 ) ;
#35 = ADVANCED_FACE ( 'NONE', ( #272 ), #21, .T. ) ;
#36 = VECTOR ( 'NONE', #322, 39.37007874015748100 ) ;
#37 = EDGE_CURVE ( 'NONE', #171, #189, #92, .T. ) ;
#38 = AXIS2_PLACEMENT_3D ( 'NONE', #333, #79, #114 ) ;
#39 = ORIENTED_EDGE ( 'NONE', *, *, #164, .T. ) ;
#40 = CALENDAR_DATE ( 2017, 7, 11 ) ;
#41 = COORDINATED_UNIVERSAL_TIME_OFFSET ( 8, 0, .BEHIND. ) ;
#42 = EDGE_LOOP ( 'NONE', ( #363, #281, #227, #277 ) ) ;
#43 = LINE ( 'NONE', #299, #95 ) ;
#44 = ORIENTED_EDGE ( 'NONE', *, *, #113, .T. ) ;
#45 = DIRECTION ( 'NONE',  ( 1.000000000000000000, 9.081941468298745300E-017, -0.0000000000000000000 ) ) ;
#46 = CARTESIAN_POINT ( 'NONE',  ( 0.03950000000000002100, 0.01200000000000000000, 0.02449999999999999700 ) ) ;
#47 = SHAPE_DEFINITION_REPRESENTATION ( #93, #309 ) ;
#48 = PERSON_AND_ORGANIZATION ( #331, #152 ) ;
#49 = DIRECTION ( 'NONE',  ( -1.000000000000000000, -9.081941468298745300E-017, -0.0000000000000000000 ) ) ;
#50 = CARTESIAN_POINT ( 'NONE',  ( 0.03950000000000002100, 0.0000000000000000000, 0.02449999999999999700 ) ) ;
#51 = CARTESIAN_POINT ( 'NONE',  ( -0.03949999999999997300, 0.01200000000000000000, 0.02449999999999999700 ) ) ;
#52 = CARTESIAN_POINT ( 'NONE',  ( -0.02549999999999999500, 0.01200000000000000000, -0.07892425929675110600 ) ) ;
#53 = LINE ( 'NONE', #109, #357 ) ;
#54 = CARTESIAN_POINT ( 'NONE',  ( 0.02350000000000000400, 0.03100000000000000300, -0.07892425929675110600 ) ) ;
#55 = DIRECTION ( 'NONE',  ( 1.000000000000000000, 0.0000000000000000000, -0.0000000000000000000 ) ) ;
#56 = VERTEX_POINT ( 'NONE', #359 ) ;
#57 = PERSON_AND_ORGANIZATION ( #331, #152 ) ;
#58 = CARTESIAN_POINT ( 'NONE',  ( 0.0000000000000000000, 0.0000000000000000000, 0.0000000000000000000 ) ) ;
#59 = CLOSED_SHELL ( 'NONE', ( #340, #88, #282, #35, #195, #305 ) ) ;
#60 = EDGE_LOOP ( 'NONE', ( #190, #26, #125, #39 ) ) ;
#61 = DIRECTION ( 'NONE',  ( 0.0000000000000000000, 0.0000000000000000000, 1.000000000000000000 ) ) ;
#62 = CARTESIAN_POINT ( 'NONE',  ( 0.03950000000000002100, 0.0000000000000000000, -0.02450000000000000400 ) ) ;
#63 = EDGE_LOOP ( 'NONE', ( #91, #376, #120, #123 ) ) ;
#64 = ORIENTED_EDGE ( 'NONE', *, *, #332, .T. ) ;
#65 = VERTEX_POINT ( 'NONE', #140 ) ;
#66 = ORIENTED_EDGE ( 'NONE', *, *, #133, .F. ) ;
#67 = ORIENTED_EDGE ( 'NONE', *, *, #178, .F. ) ;
#68 = VECTOR ( 'NONE', #135, 39.37007874015748900 ) ;
#69 = FACE_OUTER_BOUND ( 'NONE', #187, .T. ) ;
#70 = ORIENTED_EDGE ( 'NONE', *, *, #113, .F. ) ;
#71 = EDGE_LOOP ( 'NONE', ( #307, #245, #226, #144 ) ) ;
#72 = ADVANCED_FACE ( 'NONE', ( #349 ), #242, .F. ) ;
#73 = LINE ( 'NONE', #137, #36 ) ;
#74 = CARTESIAN_POINT ( 'NONE',  ( 0.02350000000000000400, 0.03100000000000000300, -0.02450000000000000400 ) ) ;
#75 = EDGE_CURVE ( 'NONE', #306, #56, #73, .T. ) ;
#76 = VECTOR ( 'NONE', #49, 39.37007874015748100 ) ;
#77 = DIRECTION ( 'NONE',  ( -0.1046847845180423900, -0.9945054529214061300, 0.0000000000000000000 ) ) ;
#78 = APPLICATION_CONTEXT ( 'configuration controlled 3d designs of mechanical parts and assemblies' ) ;
#79 = DIRECTION ( 'NONE',  ( -1.000000000000000000, 0.0000000000000000000, 0.0000000000000000000 ) ) ;
#80 = EDGE_LOOP ( 'NONE', ( #342, #265, #369, #255 ) ) ;
#81 = VECTOR ( 'NONE', #102, 39.37007874015748100 ) ;
#82 = DIRECTION ( 'NONE',  ( -0.0000000000000000000, -0.0000000000000000000, 1.000000000000000000 ) ) ;
#83 = DIRECTION ( 'NONE',  ( 1.000000000000000000, 1.255444850029532900E-016, 0.0000000000000000000 ) ) ;
#84 = LINE ( 'NONE', #320, #68 ) ;
#85 = DIRECTION ( 'NONE',  ( -9.081941468298745300E-017, 1.000000000000000000, 0.0000000000000000000 ) ) ;
#86 = PERSON_AND_ORGANIZATION_ROLE ( 'creator' ) ;
#87 = VECTOR ( 'NONE', #236, 39.37007874015748100 ) ;
#88 = ADVANCED_FACE ( 'NONE', ( #358 ), #353, .T. ) ;
#89 = ORIENTED_EDGE ( 'NONE', *, *, #216, .T. ) ;
#90 = DATE_AND_TIME ( #10, #177 ) ;
#91 = ORIENTED_EDGE ( 'NONE', *, *, #37, .T. ) ;
#92 = LINE ( 'NONE', #106, #365 ) ;
#93 = PRODUCT_DEFINITION_SHAPE ( 'NONE', 'NONE',  #158 ) ;
#94 = EDGE_CURVE ( 'NONE', #381, #171, #159, .T. ) ;
#95 = VECTOR ( 'NONE', #61, 39.37007874015748100 ) ;
#96 = EDGE_CURVE ( 'NONE', #297, #122, #375, .T. ) ;
#97 = VERTEX_POINT ( 'NONE', #382 ) ;
#98 = DIRECTION ( 'NONE',  ( -0.0000000000000000000, -1.000000000000000000, -0.0000000000000000000 ) ) ;
#99 = EDGE_CURVE ( 'NONE', #290, #295, #329, .T. ) ;
#100 = DIRECTION ( 'NONE',  ( 1.000000000000000000, -0.0000000000000000000, 0.0000000000000000000 ) ) ;
#101 = AXIS2_PLACEMENT_3D ( 'NONE', #241, #350, #318 ) ;
#102 = DIRECTION ( 'NONE',  ( 0.0000000000000000000, 0.0000000000000000000, 1.000000000000000000 ) ) ;
#103 = FACE_OUTER_BOUND ( 'NONE', #42, .T. ) ;
#104 = DIRECTION ( 'NONE',  ( 0.0000000000000000000, 0.0000000000000000000, 1.000000000000000000 ) ) ;
#105 = ORIENTED_EDGE ( 'NONE', *, *, #332, .F. ) ;
#106 = CARTESIAN_POINT ( 'NONE',  ( 0.03950000000000002100, 0.01200000000000000000, 0.02449999999999999700 ) ) ;
#107 = APPROVAL_STATUS ( 'not_yet_approved' ) ;
#108 = ORIENTED_EDGE ( 'NONE', *, *, #207, .T. ) ;
#109 = CARTESIAN_POINT ( 'NONE',  ( -0.03949999999999997300, 0.01200000000000000000, 0.02449999999999999700 ) ) ;
#110 = CARTESIAN_POINT ( 'NONE',  ( -0.03949999999999997300, 0.01200000000000000000, -0.02450000000000000400 ) ) ;
#111 = VECTOR ( 'NONE', #82, 39.37007874015748100 ) ;
#112 = CALENDAR_DATE ( 2017, 7, 11 ) ;
#113 = EDGE_CURVE ( 'NONE', #222, #11, #84, .T. ) ;
#114 = DIRECTION ( 'NONE',  ( 0.0000000000000000000, 0.0000000000000000000, 1.000000000000000000 ) ) ;
#115 = EDGE_CURVE ( 'NONE', #65, #306, #256, .T. ) ;
#116 = AXIS2_PLACEMENT_3D ( 'NONE', #58, #142, #323 ) ;
#117 = CARTESIAN_POINT ( 'NONE',  ( 0.02550000000000000500, 0.01200000000000000500, -0.02450000000000000400 ) ) ;
#118 = PLANE ( 'NONE',  #273 ) ;
#119 = APPROVAL_DATE_TIME ( #90, #184 ) ;
#120 = ORIENTED_EDGE ( 'NONE', *, *, #327, .T. ) ;
#121 = VECTOR ( 'NONE', #387, 39.37007874015748900 ) ;
#122 = VERTEX_POINT ( 'NONE', #379 ) ;
#123 = ORIENTED_EDGE ( 'NONE', *, *, #94, .T. ) ;
#124 = ADVANCED_FACE ( 'NONE', ( #311 ), #208, .F. ) ;
#125 = ORIENTED_EDGE ( 'NONE', *, *, #191, .T. ) ;
#126 = EDGE_LOOP ( 'NONE', ( #313, #108, #70, #66 ) ) ;
#127 = CC_DESIGN_PERSON_AND_ORGANIZATION_ASSIGNMENT ( #228, #380, ( #267 ) ) ;
#128 = PLANE ( 'NONE',  #239 ) ;
#129 = CARTESIAN_POINT ( 'NONE',  ( -0.02350000000000000400, 0.03100000000000000000, -0.02450000000000000400 ) ) ;
#130 = ORIENTED_EDGE ( 'NONE', *, *, #191, .F. ) ;
#131 = VECTOR ( 'NONE', #362, 39.37007874015748100 ) ;
#132 = CARTESIAN_POINT ( 'NONE',  ( 0.02350000000000000400, 0.03100000000000000300, 0.02449999999999999700 ) ) ;
#133 = EDGE_CURVE ( 'NONE', #122, #222, #162, .T. ) ;
#134 = EDGE_CURVE ( 'NONE', #161, #222, #6, .T. ) ;
#135 = DIRECTION ( 'NONE',  ( -0.1046847845180424000, -0.9945054529214061300, -0.0000000000000000000 ) ) ;
#136 = CC_DESIGN_PERSON_AND_ORGANIZATION_ASSIGNMENT ( #286, #347, ( #317 ) ) ;
#137 = CARTESIAN_POINT ( 'NONE',  ( -0.03949999999999997300, 0.0000000000000000000, -0.02450000000000000400 ) ) ;
#138 = APPROVAL_ROLE ( '' ) ;
#139 = VERTEX_POINT ( 'NONE', #263 ) ;
#140 = CARTESIAN_POINT ( 'NONE',  ( 0.03950000000000002100, 0.0000000000000000000, 0.02449999999999999700 ) ) ;
#141 = CARTESIAN_POINT ( 'NONE',  ( 0.02350000000000000400, 0.03100000000000000300, 0.02449999999999999700 ) ) ;
#142 = DIRECTION ( 'NONE',  ( 0.0000000000000000000, 0.0000000000000000000, 1.000000000000000000 ) ) ;
#143 = APPROVAL_PERSON_ORGANIZATION ( #199, #283, #17 ) ;
#144 = ORIENTED_EDGE ( 'NONE', *, *, #99, .F. ) ;
#145 = ORIENTED_EDGE ( 'NONE', *, *, #230, .T. ) ;
#146 = FACE_OUTER_BOUND ( 'NONE', #338, .T. ) ;
#147 = AXIS2_PLACEMENT_3D ( 'NONE', #316, #100, #287 ) ;
#148 = ORIENTED_EDGE ( 'NONE', *, *, #216, .F. ) ;
#149 = CARTESIAN_POINT ( 'NONE',  ( -0.03949999999999997300, 0.0000000000000000000, 0.02449999999999999700 ) ) ;
#150 = LINE ( 'NONE', #262, #8 ) ;
#151 = SECURITY_CLASSIFICATION ( '', '', #165 ) ;
#152 = ORGANIZATION ( 'UNSPECIFIED', 'UNSPECIFIED', '' ) ;
#153 = VECTOR ( 'NONE', #377, 39.37007874015748100 ) ;
#154 = EDGE_CURVE ( 'NONE', #290, #297, #180, .T. ) ;
#155 = ADVANCED_FACE ( 'NONE', ( #335 ), #204, .F. ) ;
#156 = ORIENTED_EDGE ( 'NONE', *, *, #33, .T. ) ;
#157 = LINE ( 'NONE', #249, #111 ) ;
#158 = PRODUCT_DEFINITION ( 'UNKNOWN', '', #267, #29 ) ;
#159 = LINE ( 'NONE', #51, #384 ) ;
#160 = APPROVAL_ROLE ( '' ) ;
#161 = VERTEX_POINT ( 'NONE', #132 ) ;
#162 = LINE ( 'NONE', #289, #81 ) ;
#163 = FACE_OUTER_BOUND ( 'NONE', #30, .T. ) ;
#164 = EDGE_CURVE ( 'NONE', #5, #290, #4, .T. ) ;
#165 = SECURITY_CLASSIFICATION_LEVEL ( 'unclassified' ) ;
#166 = FACE_OUTER_BOUND ( 'NONE', #60, .T. ) ;
#167 = DIRECTION ( 'NONE',  ( 0.1046847845180423900, 0.9945054529214061300, -0.0000000000000000000 ) ) ;
#168 = DIRECTION ( 'NONE',  ( -0.1046847845180428600, 0.9945054529214059100, 0.0000000000000000000 ) ) ;
#169 = CC_DESIGN_PERSON_AND_ORGANIZATION_ASSIGNMENT ( #328, #351, ( #151 ) ) ;
#170 = DIRECTION ( 'NONE',  ( 0.0000000000000000000, 0.0000000000000000000, -1.000000000000000000 ) ) ;
#171 = VERTEX_POINT ( 'NONE', #46 ) ;
#172 = CARTESIAN_POINT ( 'NONE',  ( 0.02350000000000000400, 0.03100000000000000300, -0.02450000000000000400 ) ) ;
#173 = APPLICATION_PROTOCOL_DEFINITION ( 'international standard', 'config_control_design', 1994, #78 ) ;
#174 = CARTESIAN_POINT ( 'NONE',  ( -0.02350000000000000400, 0.03100000000000000000, 0.02449999999999999700 ) ) ;
#175 = DIRECTION ( 'NONE',  ( -0.0000000000000000000, -1.000000000000000000, -0.0000000000000000000 ) ) ;
#176 = COORDINATED_UNIVERSAL_TIME_OFFSET ( 8, 0, .BEHIND. ) ;
#177 = LOCAL_TIME ( 13, 38, 33.00000000000000000, #23 ) ;
#178 = EDGE_CURVE ( 'NONE', #189, #139, #150, .T. ) ;
#179 = AXIS2_PLACEMENT_3D ( 'NONE', #355, #20, #213 ) ;
#180 = LINE ( 'NONE', #14, #153 ) ;
#181 = CARTESIAN_POINT ( 'NONE',  ( 0.02550000000000000500, 0.01200000000000000500, -0.07892425929675110600 ) ) ;
#182 = VECTOR ( 'NONE', #45, 39.37007874015748100 ) ;
#183 = EDGE_CURVE ( 'NONE', #171, #65, #251, .T. ) ;
#184 = APPROVAL ( #107, 'UNSPECIFIED' ) ;
#185 = CARTESIAN_POINT ( 'NONE',  ( -0.03949999999999997300, 0.0000000000000000000, 0.02449999999999999700 ) ) ;
#186 = DIMENSIONAL_EXPONENTS ( 1.000000000000000000, 0.0000000000000000000, 0.0000000000000000000, 0.0000000000000000000, 0.0000000000000000000, 0.0000000000000000000, 0.0000000000000000000 ) ;
#187 = EDGE_LOOP ( 'NONE', ( #257, #326, #389, #89 ) ) ;
#188 = VECTOR ( 'NONE', #98, 39.37007874015748100 ) ;
#189 = VERTEX_POINT ( 'NONE', #374 ) ;
#190 = ORIENTED_EDGE ( 'NONE', *, *, #154, .T. ) ;
#191 = EDGE_CURVE ( 'NONE', #122, #5, #339, .T. ) ;
#192 = AXIS2_PLACEMENT_3D ( 'NONE', #13, #202, #371 ) ;
#193 = ADVANCED_FACE ( 'NONE', ( #69 ), #315, .F. ) ;
#194 = FACE_OUTER_BOUND ( 'NONE', #232, .T. ) ;
#195 = ADVANCED_FACE ( 'NONE', ( #163 ), #128, .F. ) ;
#196 = DATE_TIME_ROLE ( 'classification_date' ) ;
#197 = PERSON_AND_ORGANIZATION ( #331, #152 ) ;
#198 = ORIENTED_EDGE ( 'NONE', *, *, #210, .T. ) ;
#199 = PERSON_AND_ORGANIZATION ( #331, #152 ) ;
#200 = CC_DESIGN_DATE_AND_TIME_ASSIGNMENT ( #264, #196, ( #151 ) ) ;
#201 = VECTOR ( 'NONE', #293, 39.37007874015748100 ) ;
#202 = DIRECTION ( 'NONE',  ( 0.0000000000000000000, 0.0000000000000000000, -1.000000000000000000 ) ) ;
#203 = CARTESIAN_POINT ( 'NONE',  ( 0.03950000000000002100, 0.01200000000000000000, 0.02449999999999999700 ) ) ;
#204 = PLANE ( 'NONE',  #147 ) ;
#205 = LINE ( 'NONE', #185, #215 ) ;
#206 = APPLICATION_PROTOCOL_DEFINITION ( 'international standard', 'config_control_design', 1994, #378 ) ;
#207 = EDGE_CURVE ( 'NONE', #297, #11, #32, .T. ) ;
#208 = PLANE ( 'NONE',  #101 ) ;
#209 = PERSON_AND_ORGANIZATION_ROLE ( 'creator' ) ;
#210 = EDGE_CURVE ( 'NONE', #295, #161, #312, .T. ) ;
#211 = CARTESIAN_POINT ( 'NONE',  ( -0.02549999999999999500, 0.01200000000000000000, -0.02450000000000000400 ) ) ;
#212 = CC_DESIGN_APPROVAL ( #184, ( #158 ) ) ;
#213 = DIRECTION ( 'NONE',  ( 0.0000000000000000000, -0.0000000000000000000, -1.000000000000000000 ) ) ;
#214 = LOCAL_TIME ( 13, 38, 33.00000000000000000, #373 ) ;
#215 = VECTOR ( 'NONE', #300, 39.37007874015748100 ) ;
#216 = EDGE_CURVE ( 'NONE', #381, #97, #53, .T. ) ;
#217 = PLANE ( 'NONE',  #352 ) ;
#218 = CALENDAR_DATE ( 2017, 7, 11 ) ;
#219 =( NAMED_UNIT ( * ) PLANE_ANGLE_UNIT ( ) SI_UNIT ( $, .RADIAN. ) );
#220 =( NAMED_UNIT ( * ) SI_UNIT ( $, .STERADIAN. ) SOLID_ANGLE_UNIT ( ) );
#221 = CARTESIAN_POINT ( 'NONE',  ( 0.02550000000000000500, 0.01200000000000000500, 0.02449999999999999700 ) ) ;
#222 = VERTEX_POINT ( 'NONE', #174 ) ;
#223 = CARTESIAN_POINT ( 'NONE',  ( -0.02350000000000000400, 0.03100000000000000000, -0.07892425929675110600 ) ) ;
#224 = UNCERTAINTY_MEASURE_WITH_UNIT (LENGTH_MEASURE( 1.000000000000000100E-005 ), #25, 'distance_accuracy_value', 'NONE');
#225 = APPROVAL ( #368, 'UNSPECIFIED' ) ;
#226 = ORIENTED_EDGE ( 'NONE', *, *, #210, .F. ) ;
#227 = ORIENTED_EDGE ( 'NONE', *, *, #37, .F. ) ;
#228 = PERSON_AND_ORGANIZATION ( #331, #152 ) ;
#229 = LENGTH_MEASURE_WITH_UNIT ( LENGTH_MEASURE( 0.02539999999999999900 ), #248 );
#230 = EDGE_CURVE ( 'NONE', #189, #306, #285, .T. ) ;
#231 = ADVANCED_FACE ( 'NONE', ( #16 ), #118, .T. ) ;
#232 = EDGE_LOOP ( 'NONE', ( #130, #360, #12, #238 ) ) ;
#233 = ORIENTED_EDGE ( 'NONE', *, *, #134, .T. ) ;
#234 = CC_DESIGN_PERSON_AND_ORGANIZATION_ASSIGNMENT ( #197, #86, ( #158 ) ) ;
#235 = ORIENTED_EDGE ( 'NONE', *, *, #75, .T. ) ;
#236 = DIRECTION ( 'NONE',  ( 0.0000000000000000000, 0.0000000000000000000, 1.000000000000000000 ) ) ;
#237 = ORIENTED_EDGE ( 'NONE', *, *, #207, .F. ) ;
#238 = ORIENTED_EDGE ( 'NONE', *, *, #344, .F. ) ;
#239 = AXIS2_PLACEMENT_3D ( 'NONE', #260, #170, #390 ) ;
#240 = CARTESIAN_POINT ( 'NONE',  ( -0.02350000000000000400, 0.03100000000000000000, 0.02449999999999999700 ) ) ;
#241 = CARTESIAN_POINT ( 'NONE',  ( -0.03949999999999997300, 0.01200000000000000000, -0.02450000000000000400 ) ) ;
#242 = PLANE ( 'NONE',  #179 ) ;
#243 = CARTESIAN_POINT ( 'NONE',  ( 0.02550000000000000500, 0.01200000000000000500, 0.02449999999999999700 ) ) ;
#244 = CC_DESIGN_APPROVAL ( #225, ( #151 ) ) ;
#245 = ORIENTED_EDGE ( 'NONE', *, *, #344, .T. ) ;
#246 = LOCAL_TIME ( 13, 38, 33.00000000000000000, #41 ) ;
#247 = EDGE_CURVE ( 'NONE', #56, #97, #205, .T. ) ;
#248 =( LENGTH_UNIT ( ) NAMED_UNIT ( * ) SI_UNIT ( $, .METRE. ) );
#249 = CARTESIAN_POINT ( 'NONE',  ( -0.03949999999999997300, 0.01200000000000000000, 0.02449999999999999700 ) ) ;
#250 = DIRECTION ( 'NONE',  ( -1.000000000000000000, -9.081941468298745300E-017, 0.0000000000000000000 ) ) ;
#251 = LINE ( 'NONE', #203, #188 ) ;
#252 = CC_DESIGN_DATE_AND_TIME_ASSIGNMENT ( #31, #275, ( #158 ) ) ;
#253 = DIRECTION ( 'NONE',  ( 0.0000000000000000000, -0.0000000000000000000, -1.000000000000000000 ) ) ;
#254 = EDGE_LOOP ( 'NONE', ( #235, #105, #67, #145 ) ) ;
#255 = ORIENTED_EDGE ( 'NONE', *, *, #75, .F. ) ;
#256 = LINE ( 'NONE', #50, #9 ) ;
#257 = ORIENTED_EDGE ( 'NONE', *, *, #271, .T. ) ;
#258 = APPROVAL_PERSON_ORGANIZATION ( #294, #184, #138 ) ;
#259 = CC_DESIGN_SECURITY_CLASSIFICATION ( #151, ( #267 ) ) ;
#260 = CARTESIAN_POINT ( 'NONE',  ( 0.0000000000000000000, 0.0000000000000000000, 0.02449999999999998700 ) ) ;
#261 = AXIS2_PLACEMENT_3D ( 'NONE', #52, #291, #77 ) ;
#262 = CARTESIAN_POINT ( 'NONE',  ( -0.03949999999999997300, 0.01200000000000000000, -0.02450000000000000400 ) ) ;
#263 = CARTESIAN_POINT ( 'NONE',  ( -0.03949999999999997300, 0.01200000000000000000, -0.02450000000000000400 ) ) ;
#264 = DATE_AND_TIME ( #112, #214 ) ;
#265 = ORIENTED_EDGE ( 'NONE', *, *, #271, .F. ) ;
#266 = DIRECTION ( 'NONE',  ( 1.000000000000000000, 0.0000000000000000000, 0.0000000000000000000 ) ) ;
#267 = PRODUCT_DEFINITION_FORMATION_WITH_SPECIFIED_SOURCE ( 'ANY', '', #317, .NOT_KNOWN. ) ;
#268 = CARTESIAN_POINT ( 'NONE',  ( -0.02549999999999999500, 0.01200000000000000000, 0.02449999999999999700 ) ) ;
#269 = ORIENTED_EDGE ( 'NONE', *, *, #154, .F. ) ;
#270 = DIRECTION ( 'NONE',  ( 0.0000000000000000000, 0.0000000000000000000, 1.000000000000000000 ) ) ;
#271 = EDGE_CURVE ( 'NONE', #97, #65, #298, .T. ) ;
#272 = FACE_OUTER_BOUND ( 'NONE', #71, .T. ) ;
#273 = AXIS2_PLACEMENT_3D ( 'NONE', #276, #28, #253 ) ;
#274 = PLANE ( 'NONE',  #38 ) ;
#275 = DATE_TIME_ROLE ( 'creation_date' ) ;
#276 = CARTESIAN_POINT ( 'NONE',  ( 0.0000000000000000000, 0.0000000000000000000, 0.0000000000000000000 ) ) ;
#277 = ORIENTED_EDGE ( 'NONE', *, *, #183, .T. ) ;
#278 = LINE ( 'NONE', #243, #201 ) ;
#279 = PRODUCT_RELATED_PRODUCT_CATEGORY ( 'detail', '', ( #317 ) ) ;
#280 = MANIFOLD_SOLID_BREP ( 'Boss-Extrude1', #19 ) ;
#281 = ORIENTED_EDGE ( 'NONE', *, *, #230, .F. ) ;
#282 = ADVANCED_FACE ( 'NONE', ( #194 ), #336, .T. ) ;
#283 = APPROVAL ( #319, 'UNSPECIFIED' ) ;
#284 = EDGE_LOOP ( 'NONE', ( #22, #148, #356, #64 ) ) ;
#285 = LINE ( 'NONE', #337, #348 ) ;
#286 = PERSON_AND_ORGANIZATION ( #331, #152 ) ;
#287 = DIRECTION ( 'NONE',  ( 0.0000000000000000000, 0.0000000000000000000, -1.000000000000000000 ) ) ;
#288 = VECTOR ( 'NONE', #104, 39.37007874015748100 ) ;
#289 = CARTESIAN_POINT ( 'NONE',  ( -0.02350000000000000400, 0.03100000000000000000, -0.07892425929675110600 ) ) ;
#290 = VERTEX_POINT ( 'NONE', #117 ) ;
#291 = DIRECTION ( 'NONE',  ( -0.9945054529214061300, 0.1046847845180423900, 0.0000000000000000000 ) ) ;
#292 = DIRECTION ( 'NONE',  ( 0.0000000000000000000, 0.0000000000000000000, -1.000000000000000000 ) ) ;
#293 = DIRECTION ( 'NONE',  ( 1.000000000000000000, 1.255444850029532900E-016, -0.0000000000000000000 ) ) ;
#294 = PERSON_AND_ORGANIZATION ( #331, #152 ) ;
#295 = VERTEX_POINT ( 'NONE', #221 ) ;
#296 = APPROVAL_DATE_TIME ( #34, #225 ) ;
#297 = VERTEX_POINT ( 'NONE', #27 ) ;
#298 = LINE ( 'NONE', #149, #131 ) ;
#299 = CARTESIAN_POINT ( 'NONE',  ( 0.02350000000000000400, 0.03100000000000000300, -0.07892425929675110600 ) ) ;
#300 = DIRECTION ( 'NONE',  ( -0.0000000000000000000, -0.0000000000000000000, 1.000000000000000000 ) ) ;
#301 = ORIENTED_EDGE ( 'NONE', *, *, #99, .T. ) ;
#302 = CC_DESIGN_APPROVAL ( #283, ( #267 ) ) ;
#303 = DIRECTION ( 'NONE',  ( -0.0000000000000000000, -1.000000000000000000, -0.0000000000000000000 ) ) ;
#304 = VECTOR ( 'NONE', #345, 39.37007874015748100 ) ;
#305 = ADVANCED_FACE ( 'NONE', ( #166 ), #217, .F. ) ;
#306 = VERTEX_POINT ( 'NONE', #62 ) ;
#307 = ORIENTED_EDGE ( 'NONE', *, *, #164, .F. ) ;
#308 = AXIS2_PLACEMENT_3D ( 'NONE', #223, #85, #250 ) ;
#309 = ADVANCED_BREP_SHAPE_REPRESENTATION ( '7012X5', ( #280, #7, #116 ), #18 ) ;
#310 = LOCAL_TIME ( 13, 38, 33.00000000000000000, #176 ) ;
#311 = FACE_OUTER_BOUND ( 'NONE', #254, .T. ) ;
#312 = LINE ( 'NONE', #141, #121 ) ;
#313 = ORIENTED_EDGE ( 'NONE', *, *, #96, .F. ) ;
#314 = VECTOR ( 'NONE', #167, 39.37007874015748900 ) ;
#315 = PLANE ( 'NONE',  #192 ) ;
#316 = CARTESIAN_POINT ( 'NONE',  ( -0.03949999999999997300, 0.01200000000000000000, 0.02449999999999999700 ) ) ;
#317 = PRODUCT ( '7012X5', '7012X5', '', ( #367 ) ) ;
#318 = DIRECTION ( 'NONE',  ( 1.000000000000000000, 0.0000000000000000000, -0.0000000000000000000 ) ) ;
#319 = APPROVAL_STATUS ( 'not_yet_approved' ) ;
#320 = CARTESIAN_POINT ( 'NONE',  ( -0.02549999999999999500, 0.01200000000000000000, 0.02449999999999999700 ) ) ;
#321 = LINE ( 'NONE', #330, #24 ) ;
#322 = DIRECTION ( 'NONE',  ( -1.000000000000000000, -0.0000000000000000000, -0.0000000000000000000 ) ) ;
#323 = DIRECTION ( 'NONE',  ( 1.000000000000000000, 0.0000000000000000000, 0.0000000000000000000 ) ) ;
#324 = CC_DESIGN_PERSON_AND_ORGANIZATION_ASSIGNMENT ( #48, #209, ( #267 ) ) ;
#325 = CARTESIAN_POINT ( 'NONE',  ( -0.02549999999999999500, 0.01200000000000000000, -0.07892425929675110600 ) ) ;
#326 = ORIENTED_EDGE ( 'NONE', *, *, #183, .F. ) ;
#327 = EDGE_CURVE ( 'NONE', #139, #381, #157, .T. ) ;
#328 = PERSON_AND_ORGANIZATION ( #331, #152 ) ;
#329 = LINE ( 'NONE', #385, #288 ) ;
#330 = CARTESIAN_POINT ( 'NONE',  ( -0.03949999999999997300, 0.01200000000000000000, -0.02450000000000000400 ) ) ;
#331 = PERSON ( 'UNSPECIFIED', 'UNSPECIFIED', 'UNSPECIFIED', ('UNSPECIFIED'), ('UNSPECIFIED'), ('UNSPECIFIED') ) ;
#332 = EDGE_CURVE ( 'NONE', #139, #56, #321, .T. ) ;
#333 = CARTESIAN_POINT ( 'NONE',  ( 0.03950000000000002100, 0.01200000000000000000, 0.02449999999999999700 ) ) ;
#334 = APPROVAL_PERSON_ORGANIZATION ( #57, #225, #160 ) ;
#335 = FACE_OUTER_BOUND ( 'NONE', #284, .T. ) ;
#336 = PLANE ( 'NONE',  #308 ) ;
#337 = CARTESIAN_POINT ( 'NONE',  ( 0.03950000000000002100, 0.01200000000000000000, -0.02450000000000000400 ) ) ;
#338 = EDGE_LOOP ( 'NONE', ( #269, #301, #372, #237 ) ) ;
#339 = LINE ( 'NONE', #129, #182 ) ;
#340 = ADVANCED_FACE ( 'NONE', ( #146 ), #3, .T. ) ;
#341 = LOCAL_TIME ( 13, 38, 33.00000000000000000, #354 ) ;
#342 = ORIENTED_EDGE ( 'NONE', *, *, #115, .F. ) ;
#343 = DIRECTION ( 'NONE',  ( -1.000000000000000000, -0.0000000000000000000, -0.0000000000000000000 ) ) ;
#344 = EDGE_CURVE ( 'NONE', #5, #161, #43, .T. ) ;
#345 = DIRECTION ( 'NONE',  ( 0.1046847845180428600, -0.9945054529214059100, 0.0000000000000000000 ) ) ;
#346 = CALENDAR_DATE ( 2017, 7, 11 ) ;
#347 = PERSON_AND_ORGANIZATION_ROLE ( 'design_owner' ) ;
#348 = VECTOR ( 'NONE', #303, 39.37007874015748100 ) ;
#349 = FACE_OUTER_BOUND ( 'NONE', #63, .T. ) ;
#350 = DIRECTION ( 'NONE',  ( 0.0000000000000000000, 0.0000000000000000000, 1.000000000000000000 ) ) ;
#351 = PERSON_AND_ORGANIZATION_ROLE ( 'classification_officer' ) ;
#352 = AXIS2_PLACEMENT_3D ( 'NONE', #110, #270, #55 ) ;
#353 = PLANE ( 'NONE',  #261 ) ;
#354 = COORDINATED_UNIVERSAL_TIME_OFFSET ( 8, 0, .BEHIND. ) ;
#355 = CARTESIAN_POINT ( 'NONE',  ( 0.0000000000000000000, 0.01200000000000000000, 0.0000000000000000000 ) ) ;
#356 = ORIENTED_EDGE ( 'NONE', *, *, #327, .F. ) ;
#357 = VECTOR ( 'NONE', #175, 39.37007874015748100 ) ;
#358 = FACE_OUTER_BOUND ( 'NONE', #126, .T. ) ;
#359 = CARTESIAN_POINT ( 'NONE',  ( -0.03949999999999997300, 0.0000000000000000000, -0.02450000000000000400 ) ) ;
#360 = ORIENTED_EDGE ( 'NONE', *, *, #133, .T. ) ;
#361 = CARTESIAN_POINT ( 'NONE',  ( -0.03949999999999997300, 0.01200000000000000000, 0.02449999999999999700 ) ) ;
#362 = DIRECTION ( 'NONE',  ( 1.000000000000000000, 0.0000000000000000000, 0.0000000000000000000 ) ) ;
#363 = ORIENTED_EDGE ( 'NONE', *, *, #115, .T. ) ;
#364 = DATE_AND_TIME ( #218, #246 ) ;
#365 = VECTOR ( 'NONE', #292, 39.37007874015748100 ) ;
#366 = ADVANCED_FACE ( 'NONE', ( #103 ), #274, .F. ) ;
#367 = MECHANICAL_CONTEXT ( 'NONE', #78, 'mechanical' ) ;
#368 = APPROVAL_STATUS ( 'not_yet_approved' ) ;
#369 = ORIENTED_EDGE ( 'NONE', *, *, #247, .F. ) ;
#370 = AXIS2_PLACEMENT_3D ( 'NONE', #54, #386, #168 ) ;
#371 = DIRECTION ( 'NONE',  ( -1.000000000000000000, 0.0000000000000000000, -0.0000000000000000000 ) ) ;
#372 = ORIENTED_EDGE ( 'NONE', *, *, #33, .F. ) ;
#373 = COORDINATED_UNIVERSAL_TIME_OFFSET ( 8, 0, .BEHIND. ) ;
#374 = CARTESIAN_POINT ( 'NONE',  ( 0.03950000000000002100, 0.01200000000000000000, -0.02450000000000000400 ) ) ;
#375 = LINE ( 'NONE', #211, #314 ) ;
#376 = ORIENTED_EDGE ( 'NONE', *, *, #178, .T. ) ;
#377 = DIRECTION ( 'NONE',  ( -1.000000000000000000, -1.255444850029532900E-016, 0.0000000000000000000 ) ) ;
#378 = APPLICATION_CONTEXT ( 'configuration controlled 3d designs of mechanical parts and assemblies' ) ;
#379 = CARTESIAN_POINT ( 'NONE',  ( -0.02350000000000000400, 0.03100000000000000000, -0.02450000000000000400 ) ) ;
#380 = PERSON_AND_ORGANIZATION_ROLE ( 'design_supplier' ) ;
#381 = VERTEX_POINT ( 'NONE', #361 ) ;
#382 = CARTESIAN_POINT ( 'NONE',  ( -0.03949999999999997300, 0.0000000000000000000, 0.02449999999999999700 ) ) ;
#383 = APPROVAL_DATE_TIME ( #364, #283 ) ;
#384 = VECTOR ( 'NONE', #266, 39.37007874015748100 ) ;
#385 = CARTESIAN_POINT ( 'NONE',  ( 0.02550000000000000500, 0.01200000000000000500, -0.07892425929675110600 ) ) ;
#386 = DIRECTION ( 'NONE',  ( 0.9945054529214060200, 0.1046847845180428800, -0.0000000000000000000 ) ) ;
#387 = DIRECTION ( 'NONE',  ( -0.1046847845180428300, 0.9945054529214059100, -0.0000000000000000000 ) ) ;
#388 = DIRECTION ( 'NONE',  ( -0.0000000000000000000, -1.000000000000000000, -0.0000000000000000000 ) ) ;
#389 = ORIENTED_EDGE ( 'NONE', *, *, #94, .F. ) ;
#390 = DIRECTION ( 'NONE',  ( -1.000000000000000000, 0.0000000000000000000, 0.0000000000000000000 ) ) ;
ENDSEC;
END-ISO-10303-21;
