ISO-10303-21;
HEADER;
FILE_DESCRIPTION (( 'STEP AP203' ),
    '1' );
FILE_NAME ('RTN 112.STEP',
    '2016-07-07T22:57:04',
    ( '' ),
    ( '' ),
    'SwSTEP 2.0',
    'SolidWorks 2014',
    '' );
FILE_SCHEMA (( 'CONFIG_CONTROL_DESIGN' ));
ENDSEC;

DATA;
#1 = FACE_BOUND ( 'NONE', #340, .T. ) ;
#2 = APPROVAL_ROLE ( '' ) ;
#3 = ORIENTED_EDGE ( 'NONE', *, *, #332, .T. ) ;
#4 = CONICAL_SURFACE ( 'NONE', #309, 0.05700000000000000900, 0.4363323129985832200 ) ;
#5 = VECTOR ( 'NONE', #146, 39.37007874015748100 ) ;
#6 = ORIENTED_EDGE ( 'NONE', *, *, #54, .T. ) ;
#7 = ORIENTED_EDGE ( 'NONE', *, *, #170, .F. ) ;
#8 = DIRECTION ( 'NONE',  ( -1.000000000000000000, -0.0000000000000000000, -2.276539994720219800E-016 ) ) ;
#9 = DATE_AND_TIME ( #79, #154 ) ;
#10 = CALENDAR_DATE ( 2016, 7, 7 ) ;
#11 = PRODUCT_DEFINITION ( 'UNKNOWN', '', #103, #272 ) ;
#12 = FACE_OUTER_BOUND ( 'NONE', #105, .T. ) ;
#13 = CARTESIAN_POINT ( 'NONE',  ( 0.0000000000000000000, 1.040949779275249900E-017, -0.08499999999999999200 ) ) ;
#14 = AXIS2_PLACEMENT_3D ( 'NONE', #176, #8, #194 ) ;
#15 = DIRECTION ( 'NONE',  ( 0.0000000000000000000, 0.0000000000000000000, 1.000000000000000000 ) ) ;
#16 = ORIENTED_EDGE ( 'NONE', *, *, #72, .T. ) ;
#17 = LINE ( 'NONE', #218, #148 ) ;
#18 = FACE_OUTER_BOUND ( 'NONE', #88, .T. ) ;
#19 = VERTEX_POINT ( 'NONE', #53 ) ;
#20 = APPLICATION_CONTEXT ( 'configuration controlled 3d designs of mechanical parts and assemblies' ) ;
#21 = ADVANCED_BREP_SHAPE_REPRESENTATION ( 'RTN 112', ( #219, #324 ), #344 ) ;
#22 = ORIENTED_EDGE ( 'NONE', *, *, #145, .F. ) ;
#23 = APPROVAL_DATE_TIME ( #91, #35 ) ;
#24 = VECTOR ( 'NONE', #208, 39.37007874015747400 ) ;
#25 = EDGE_CURVE ( 'NONE', #42, #203, #250, .T. ) ;
#26 = DIRECTION ( 'NONE',  ( 0.0000000000000000000, 0.0000000000000000000, -1.000000000000000000 ) ) ;
#27 = DIRECTION ( 'NONE',  ( 0.0000000000000000000, 0.0000000000000000000, -1.000000000000000000 ) ) ;
#28 = CARTESIAN_POINT ( 'NONE',  ( 0.1499999999999999900, 0.0000000000000000000, 0.08499999999999999200 ) ) ;
#29 = CIRCLE ( 'NONE', #343, 0.08499999999999999200 ) ;
#30 = CIRCLE ( 'NONE', #36, 0.05200000000000002500 ) ;
#31 = CARTESIAN_POINT ( 'NONE',  ( -1.183800797254515100E-017, 0.0000000000000000000, 0.05200000000000003900 ) ) ;
#32 = APPROVAL_PERSON_ORGANIZATION ( #102, #35, #236 ) ;
#33 = FACE_OUTER_BOUND ( 'NONE', #323, .T. ) ;
#34 = CARTESIAN_POINT ( 'NONE',  ( 0.02999999999999997500, 0.0000000000000000000, 0.05700000000000001600 ) ) ;
#35 = APPROVAL ( #46, 'UNSPECIFIED' ) ;
#36 = AXIS2_PLACEMENT_3D ( 'NONE', #247, #78, #263 ) ;
#37 = CARTESIAN_POINT ( 'NONE',  ( 0.1499999999999999900, 0.0000000000000000000, 0.0000000000000000000 ) ) ;
#38 = CONICAL_SURFACE ( 'NONE', #215, 0.05700000000000000900, 0.4363323129985832200 ) ;
#39 = DIRECTION ( 'NONE',  ( -1.000000000000000000, -0.0000000000000000000, -0.0000000000000000000 ) ) ;
#40 = CARTESIAN_POINT ( 'NONE',  ( 0.0000000000000000000, 0.0000000000000000000, 0.0000000000000000000 ) ) ;
#41 = EDGE_CURVE ( 'NONE', #200, #221, #320, .T. ) ;
#42 = VERTEX_POINT ( 'NONE', #34 ) ;
#43 = CLOSED_SHELL ( 'NONE', ( #286, #349, #202, #100, #245, #68, #338, #184, #315, #47 ) ) ;
#44 = CARTESIAN_POINT ( 'NONE',  ( 0.02999999999999999900, 6.980486755139913200E-018, -0.05700000000000000200 ) ) ;
#45 = CALENDAR_DATE ( 2016, 7, 7 ) ;
#46 = APPROVAL_STATUS ( 'not_yet_approved' ) ;
#47 = ADVANCED_FACE ( 'NONE', ( #181 ), #243, .F. ) ;
#48 = CC_DESIGN_APPROVAL ( #35, ( #11 ) ) ;
#49 = DIRECTION ( 'NONE',  ( -1.000000000000000000, -0.0000000000000000000, -2.276539994720219800E-016 ) ) ;
#50 = AXIS2_PLACEMENT_3D ( 'NONE', #37, #172, #86 ) ;
#51 = EDGE_LOOP ( 'NONE', ( #234, #256, #70, #127 ) ) ;
#52 = CARTESIAN_POINT ( 'NONE',  ( 0.0000000000000000000, 0.0000000000000000000, 0.08499999999999999200 ) ) ;
#53 = CARTESIAN_POINT ( 'NONE',  ( 0.1499999999999999900, 6.368163355566241800E-018, -0.05200000000000001800 ) ) ;
#54 = EDGE_CURVE ( 'NONE', #303, #19, #310, .T. ) ;
#55 = DIRECTION ( 'NONE',  ( 1.000000000000000000, 0.0000000000000000000, 0.0000000000000000000 ) ) ;
#56 = DIRECTION ( 'NONE',  ( -1.000000000000000000, -0.0000000000000000000, -0.0000000000000000000 ) ) ;
#57 = DIRECTION ( 'NONE',  ( 1.000000000000000000, 0.0000000000000000000, 0.0000000000000000000 ) ) ;
#58 = ORIENTED_EDGE ( 'NONE', *, *, #271, .F. ) ;
#59 = ORIENTED_EDGE ( 'NONE', *, *, #314, .F. ) ;
#60 = DIRECTION ( 'NONE',  ( 0.0000000000000000000, 0.0000000000000000000, -1.000000000000000000 ) ) ;
#61 = CC_DESIGN_PERSON_AND_ORGANIZATION_ASSIGNMENT ( #298, #67, ( #11 ) ) ;
#62 = DATE_AND_TIME ( #130, #205 ) ;
#63 = AXIS2_PLACEMENT_3D ( 'NONE', #253, #92, #276 ) ;
#64 = CARTESIAN_POINT ( 'NONE',  ( 0.0000000000000000000, 6.980486755139913200E-018, -0.05700000000000000900 ) ) ;
#65 = DIRECTION ( 'NONE',  ( 0.0000000000000000000, 0.0000000000000000000, 1.000000000000000000 ) ) ;
#66 = ORIENTED_EDGE ( 'NONE', *, *, #352, .F. ) ;
#67 = PERSON_AND_ORGANIZATION_ROLE ( 'creator' ) ;
#68 = ADVANCED_FACE ( 'NONE', ( #173, #106 ), #94, .T. ) ;
#69 = ORIENTED_EDGE ( 'NONE', *, *, #318, .F. ) ;
#70 = ORIENTED_EDGE ( 'NONE', *, *, #299, .T. ) ;
#71 = PERSON_AND_ORGANIZATION ( #199, #246 ) ;
#72 = EDGE_CURVE ( 'NONE', #296, #90, #98, .T. ) ;
#73 = LINE ( 'NONE', #307, #279 ) ;
#74 = DIRECTION ( 'NONE',  ( -1.000000000000000000, -0.0000000000000000000, -2.276539994720219800E-016 ) ) ;
#75 = VERTEX_POINT ( 'NONE', #207 ) ;
#76 = ORIENTED_EDGE ( 'NONE', *, *, #41, .T. ) ;
#77 = VERTEX_POINT ( 'NONE', #241 ) ;
#78 = DIRECTION ( 'NONE',  ( -1.000000000000000000, -0.0000000000000000000, -2.276539994720219800E-016 ) ) ;
#79 = CALENDAR_DATE ( 2016, 7, 7 ) ;
#80 = LOCAL_TIME ( 15, 57, 4.000000000000000000, #155 ) ;
#81 = CARTESIAN_POINT ( 'NONE',  ( 0.02999999999999998800, 0.0000000000000000000, 6.829619984160656500E-018 ) ) ;
#82 = CC_DESIGN_DATE_AND_TIME_ASSIGNMENT ( #9, #258, ( #11 ) ) ;
#83 = CYLINDRICAL_SURFACE ( 'NONE', #255, 0.05200000000000003900 ) ;
#84 = DIRECTION ( 'NONE',  ( 1.000000000000000000, 0.0000000000000000000, 0.0000000000000000000 ) ) ;
#85 =( LENGTH_UNIT ( ) NAMED_UNIT ( * ) SI_UNIT ( $, .METRE. ) );
#86 = DIRECTION ( 'NONE',  ( 0.0000000000000000000, 0.0000000000000000000, 1.000000000000000000 ) ) ;
#87 = FACE_OUTER_BOUND ( 'NONE', #51, .T. ) ;
#88 = EDGE_LOOP ( 'NONE', ( #204, #164, #111, #275 ) ) ;
#89 = ORIENTED_EDGE ( 'NONE', *, *, #186, .F. ) ;
#90 = VERTEX_POINT ( 'NONE', #260 ) ;
#91 = DATE_AND_TIME ( #166, #237 ) ;
#92 = DIRECTION ( 'NONE',  ( -1.000000000000000000, -0.0000000000000000000, -2.276539994720219800E-016 ) ) ;
#93 = LINE ( 'NONE', #312, #24 ) ;
#94 = PLANE ( 'NONE',  #326 ) ;
#95 = EDGE_CURVE ( 'NONE', #297, #348, #29, .T. ) ;
#96 = UNCERTAINTY_MEASURE_WITH_UNIT (LENGTH_MEASURE( 1.000000000000000100E-005 ), #269, 'distance_accuracy_value', 'NONE');
#97 = CARTESIAN_POINT ( 'NONE',  ( 0.0000000000000000000, 0.0000000000000000000, 0.0000000000000000000 ) ) ;
#98 = CIRCLE ( 'NONE', #308, 0.08499999999999999200 ) ;
#99 = CIRCLE ( 'NONE', #14, 0.05200000000000002500 ) ;
#100 = ADVANCED_FACE ( 'NONE', ( #311 ), #302, .F. ) ;
#101 = APPROVAL_STATUS ( 'not_yet_approved' ) ;
#102 = PERSON_AND_ORGANIZATION ( #199, #246 ) ;
#103 = PRODUCT_DEFINITION_FORMATION_WITH_SPECIFIED_SOURCE ( 'ANY', '', #182, .NOT_KNOWN. ) ;
#104 = CARTESIAN_POINT ( 'NONE',  ( 0.1499999999999999900, 0.0000000000000000000, 0.0000000000000000000 ) ) ;
#105 = EDGE_LOOP ( 'NONE', ( #117, #287, #135, #211 ) ) ;
#106 = FACE_OUTER_BOUND ( 'NONE', #137, .T. ) ;
#107 = APPROVAL ( #169, 'UNSPECIFIED' ) ;
#108 = DIMENSIONAL_EXPONENTS ( 1.000000000000000000, 0.0000000000000000000, 0.0000000000000000000, 0.0000000000000000000, 0.0000000000000000000, 0.0000000000000000000, 0.0000000000000000000 ) ;
#109 = DIRECTION ( 'NONE',  ( -2.246585521105479500E-016, 0.0000000000000000000, 1.000000000000000000 ) ) ;
#110 = EDGE_CURVE ( 'NONE', #75, #77, #30, .T. ) ;
#111 = ORIENTED_EDGE ( 'NONE', *, *, #314, .T. ) ;
#112 = CYLINDRICAL_SURFACE ( 'NONE', #187, 0.08499999999999999200 ) ;
#113 =( NAMED_UNIT ( * ) PLANE_ANGLE_UNIT ( ) SI_UNIT ( $, .RADIAN. ) );
#114 = DIRECTION ( 'NONE',  ( 0.0000000000000000000, 0.0000000000000000000, 1.000000000000000000 ) ) ;
#115 = CARTESIAN_POINT ( 'NONE',  ( 0.02999999999999998800, 0.0000000000000000000, 6.829619984160656500E-018 ) ) ;
#116 = APPROVAL ( #101, 'UNSPECIFIED' ) ;
#117 = ORIENTED_EDGE ( 'NONE', *, *, #277, .F. ) ;
#118 = DIRECTION ( 'NONE',  ( -0.9063077870366498300, 0.0000000000000000000, 0.4226182617406998900 ) ) ;
#119 = CC_DESIGN_APPROVAL ( #107, ( #192 ) ) ;
#120 = PERSON_AND_ORGANIZATION_ROLE ( 'creator' ) ;
#121 = PRODUCT_DEFINITION_SHAPE ( 'NONE', 'NONE',  #11 ) ;
#122 = AXIS2_PLACEMENT_3D ( 'NONE', #345, #188, #27 ) ;
#123 = LOCAL_TIME ( 15, 57, 4.000000000000000000, #197 ) ;
#124 = EDGE_CURVE ( 'NONE', #303, #75, #174, .T. ) ;
#125 = DIRECTION ( 'NONE',  ( 0.0000000000000000000, 0.0000000000000000000, -1.000000000000000000 ) ) ;
#126 = DIRECTION ( 'NONE',  ( -1.000000000000000000, -0.0000000000000000000, -2.276539994720219800E-016 ) ) ;
#127 = ORIENTED_EDGE ( 'NONE', *, *, #95, .T. ) ;
#128 = CARTESIAN_POINT ( 'NONE',  ( 0.1499999999999999900, 0.0000000000000000000, 0.0000000000000000000 ) ) ;
#129 = ORIENTED_EDGE ( 'NONE', *, *, #110, .T. ) ;
#130 = CALENDAR_DATE ( 2016, 7, 7 ) ;
#131 = DIRECTION ( 'NONE',  ( 1.000000000000000000, 0.0000000000000000000, 0.0000000000000000000 ) ) ;
#132 = CC_DESIGN_APPROVAL ( #116, ( #103 ) ) ;
#133 = DIRECTION ( 'NONE',  ( 0.0000000000000000000, 0.0000000000000000000, 1.000000000000000000 ) ) ;
#134 = CC_DESIGN_SECURITY_CLASSIFICATION ( #192, ( #103 ) ) ;
#135 = ORIENTED_EDGE ( 'NONE', *, *, #186, .T. ) ;
#136 = LENGTH_MEASURE_WITH_UNIT ( LENGTH_MEASURE( 0.02539999999999999900 ), #85 );
#137 = EDGE_LOOP ( 'NONE', ( #16, #225 ) ) ;
#138 = EDGE_LOOP ( 'NONE', ( #69, #273, #153, #281 ) ) ;
#139 = DIRECTION ( 'NONE',  ( -2.246585521105479500E-016, 0.0000000000000000000, 1.000000000000000000 ) ) ;
#140 = PERSON_AND_ORGANIZATION ( #199, #246 ) ;
#141 = AXIS2_PLACEMENT_3D ( 'NONE', #128, #39, #114 ) ;
#142 = DIRECTION ( 'NONE',  ( -1.000000000000000000, -0.0000000000000000000, -0.0000000000000000000 ) ) ;
#143 = VECTOR ( 'NONE', #346, 39.37007874015748100 ) ;
#144 = CARTESIAN_POINT ( 'NONE',  ( 0.1499999999999999700, 0.0000000000000000000, 3.414809992080329000E-017 ) ) ;
#145 = EDGE_CURVE ( 'NONE', #77, #75, #99, .T. ) ;
#146 = DIRECTION ( 'NONE',  ( -1.000000000000000000, -0.0000000000000000000, -2.276539994720219800E-016 ) ) ;
#147 = ORIENTED_EDGE ( 'NONE', *, *, #195, .F. ) ;
#148 = VECTOR ( 'NONE', #56, 39.37007874015748100 ) ;
#149 = CYLINDRICAL_SURFACE ( 'NONE', #141, 0.08499999999999999200 ) ;
#150 = DIRECTION ( 'NONE',  ( 1.000000000000000000, 0.0000000000000000000, 0.0000000000000000000 ) ) ;
#151 = ORIENTED_EDGE ( 'NONE', *, *, #54, .F. ) ;
#152 = SECURITY_CLASSIFICATION_LEVEL ( 'unclassified' ) ;
#153 = ORIENTED_EDGE ( 'NONE', *, *, #352, .T. ) ;
#154 = LOCAL_TIME ( 15, 57, 4.000000000000000000, #226 ) ;
#155 = COORDINATED_UNIVERSAL_TIME_OFFSET ( 8, 0, .BEHIND. ) ;
#156 = DIRECTION ( 'NONE',  ( 1.000000000000000000, 0.0000000000000000000, 0.0000000000000000000 ) ) ;
#157 = CIRCLE ( 'NONE', #267, 0.05700000000000000900 ) ;
#158 = CC_DESIGN_PERSON_AND_ORGANIZATION_ASSIGNMENT ( #140, #120, ( #103 ) ) ;
#159 = ORIENTED_EDGE ( 'NONE', *, *, #170, .T. ) ;
#160 = CARTESIAN_POINT ( 'NONE',  ( 0.1499999999999999900, 1.040949779275249900E-017, -0.08499999999999999200 ) ) ;
#161 = FACE_OUTER_BOUND ( 'NONE', #350, .T. ) ;
#162 = PRODUCT_RELATED_PRODUCT_CATEGORY ( 'detail', '', ( #182 ) ) ;
#163 = CIRCLE ( 'NONE', #63, 0.05200000000000005300 ) ;
#164 = ORIENTED_EDGE ( 'NONE', *, *, #295, .T. ) ;
#165 = ORIENTED_EDGE ( 'NONE', *, *, #95, .F. ) ;
#166 = CALENDAR_DATE ( 2016, 7, 7 ) ;
#167 = VECTOR ( 'NONE', #321, 39.37007874015748100 ) ;
#168 = AXIS2_PLACEMENT_3D ( 'NONE', #242, #74, #261 ) ;
#169 = APPROVAL_STATUS ( 'not_yet_approved' ) ;
#170 = EDGE_CURVE ( 'NONE', #19, #303, #163, .T. ) ;
#171 = CARTESIAN_POINT ( 'NONE',  ( 0.0000000000000000000, 0.0000000000000000000, 0.0000000000000000000 ) ) ;
#172 = DIRECTION ( 'NONE',  ( -1.000000000000000000, -0.0000000000000000000, -0.0000000000000000000 ) ) ;
#173 = FACE_BOUND ( 'NONE', #262, .T. ) ;
#174 = LINE ( 'NONE', #31, #233 ) ;
#175 = PERSON_AND_ORGANIZATION ( #199, #246 ) ;
#176 = CARTESIAN_POINT ( 'NONE',  ( 0.04072253460254771800, 0.0000000000000000000, 9.270647870907794200E-018 ) ) ;
#177 = DIRECTION ( 'NONE',  ( -1.000000000000000000, -0.0000000000000000000, -2.276539994720219800E-016 ) ) ;
#178 = CC_DESIGN_PERSON_AND_ORGANIZATION_ASSIGNMENT ( #71, #316, ( #103 ) ) ;
#179 = DIRECTION ( 'NONE',  ( -3.283471146231082200E-016, 0.0000000000000000000, 1.000000000000000000 ) ) ;
#180 = DIRECTION ( 'NONE',  ( -1.000000000000000000, -0.0000000000000000000, -0.0000000000000000000 ) ) ;
#181 = FACE_OUTER_BOUND ( 'NONE', #189, .T. ) ;
#182 = PRODUCT ( 'RTN 112', 'RTN 112', '', ( #337 ) ) ;
#183 = PERSON_AND_ORGANIZATION_ROLE ( 'design_owner' ) ;
#184 = ADVANCED_FACE ( 'NONE', ( #87 ), #149, .T. ) ;
#185 = DATE_TIME_ROLE ( 'classification_date' ) ;
#186 = EDGE_CURVE ( 'NONE', #75, #42, #244, .T. ) ;
#187 = AXIS2_PLACEMENT_3D ( 'NONE', #335, #180, #15 ) ;
#188 = DIRECTION ( 'NONE',  ( 1.000000000000000000, 0.0000000000000000000, 0.0000000000000000000 ) ) ;
#189 = EDGE_LOOP ( 'NONE', ( #147, #151, #235, #129 ) ) ;
#190 = CARTESIAN_POINT ( 'NONE',  ( 0.1499999999999999900, 0.0000000000000000000, 0.08499999999999999200 ) ) ;
#191 = DIRECTION ( 'NONE',  ( -1.000000000000000000, -0.0000000000000000000, -2.276539994720219800E-016 ) ) ;
#192 = SECURITY_CLASSIFICATION ( '', '', #152 ) ;
#193 = CARTESIAN_POINT ( 'NONE',  ( 0.0000000000000000000, 0.0000000000000000000, 0.0000000000000000000 ) ) ;
#194 = DIRECTION ( 'NONE',  ( -1.641735573115542100E-016, 0.0000000000000000000, 1.000000000000000000 ) ) ;
#195 = EDGE_CURVE ( 'NONE', #19, #77, #223, .T. ) ;
#196 = AXIS2_PLACEMENT_3D ( 'NONE', #257, #198, #65 ) ;
#197 = COORDINATED_UNIVERSAL_TIME_OFFSET ( 8, 0, .BEHIND. ) ;
#198 = DIRECTION ( 'NONE',  ( -1.000000000000000000, -0.0000000000000000000, -0.0000000000000000000 ) ) ;
#199 = PERSON ( 'UNSPECIFIED', 'UNSPECIFIED', 'UNSPECIFIED', ('UNSPECIFIED'), ('UNSPECIFIED'), ('UNSPECIFIED') ) ;
#200 = VERTEX_POINT ( 'NONE', #64 ) ;
#201 = APPLICATION_PROTOCOL_DEFINITION ( 'international standard', 'config_control_design', 1994, #20 ) ;
#202 = ADVANCED_FACE ( 'NONE', ( #18 ), #112, .T. ) ;
#203 = VERTEX_POINT ( 'NONE', #44 ) ;
#204 = ORIENTED_EDGE ( 'NONE', *, *, #259, .F. ) ;
#205 = LOCAL_TIME ( 15, 57, 4.000000000000000000, #278 ) ;
#206 = CC_DESIGN_PERSON_AND_ORGANIZATION_ASSIGNMENT ( #351, #339, ( #192 ) ) ;
#207 = CARTESIAN_POINT ( 'NONE',  ( 0.04072253460254771100, 0.0000000000000000000, 0.05200000000000003900 ) ) ;
#208 = DIRECTION ( 'NONE',  ( -0.9063077870366496000, 5.175581015019668600E-017, -0.4226182617407004400 ) ) ;
#209 = ORIENTED_EDGE ( 'NONE', *, *, #145, .T. ) ;
#210 = CIRCLE ( 'NONE', #122, 0.08499999999999999200 ) ;
#211 = ORIENTED_EDGE ( 'NONE', *, *, #25, .T. ) ;
#212 = ORIENTED_EDGE ( 'NONE', *, *, #332, .F. ) ;
#213 = APPROVAL_DATE_TIME ( #289, #116 ) ;
#214 = AXIS2_PLACEMENT_3D ( 'NONE', #81, #264, #109 ) ;
#215 = AXIS2_PLACEMENT_3D ( 'NONE', #331, #177, #139 ) ;
#216 = LINE ( 'NONE', #190, #143 ) ;
#217 = CARTESIAN_POINT ( 'NONE',  ( 0.0000000000000000000, 0.0000000000000000000, 0.0000000000000000000 ) ) ;
#218 = CARTESIAN_POINT ( 'NONE',  ( 0.1499999999999999900, 0.0000000000000000000, 0.05700000000000000900 ) ) ;
#219 = MANIFOLD_SOLID_BREP ( 'Revolve1', #43 ) ;
#220 = CARTESIAN_POINT ( 'NONE',  ( 0.0000000000000000000, 0.0000000000000000000, 0.0000000000000000000 ) ) ;
#221 = VERTEX_POINT ( 'NONE', #232 ) ;
#222 = FACE_OUTER_BOUND ( 'NONE', #347, .T. ) ;
#223 = LINE ( 'NONE', #330, #5 ) ;
#224 = ORIENTED_EDGE ( 'NONE', *, *, #271, .T. ) ;
#225 = ORIENTED_EDGE ( 'NONE', *, *, #259, .T. ) ;
#226 = COORDINATED_UNIVERSAL_TIME_OFFSET ( 8, 0, .BEHIND. ) ;
#227 = APPROVAL_PERSON_ORGANIZATION ( #288, #116, #285 ) ;
#228 = DIRECTION ( 'NONE',  ( 1.000000000000000000, 0.0000000000000000000, 0.0000000000000000000 ) ) ;
#229 = LINE ( 'NONE', #160, #167 ) ;
#230 = CARTESIAN_POINT ( 'NONE',  ( 0.1499999999999999900, 0.0000000000000000000, 0.0000000000000000000 ) ) ;
#231 = CC_DESIGN_DATE_AND_TIME_ASSIGNMENT ( #62, #185, ( #192 ) ) ;
#232 = CARTESIAN_POINT ( 'NONE',  ( 0.0000000000000000000, 0.0000000000000000000, 0.05700000000000000900 ) ) ;
#233 = VECTOR ( 'NONE', #191, 39.37007874015748100 ) ;
#234 = ORIENTED_EDGE ( 'NONE', *, *, #295, .F. ) ;
#235 = ORIENTED_EDGE ( 'NONE', *, *, #124, .T. ) ;
#236 = APPROVAL_ROLE ( '' ) ;
#237 = LOCAL_TIME ( 15, 57, 4.000000000000000000, #304 ) ;
#238 = CIRCLE ( 'NONE', #168, 0.05700000000000000900 ) ;
#239 = AXIS2_PLACEMENT_3D ( 'NONE', #248, #131, #325 ) ;
#240 = AXIS2_PLACEMENT_3D ( 'NONE', #40, #228, #60 ) ;
#241 = CARTESIAN_POINT ( 'NONE',  ( 0.04072253460254772500, 6.674325055353076400E-018, -0.05200000000000001800 ) ) ;
#242 = CARTESIAN_POINT ( 'NONE',  ( 0.02999999999999998800, 0.0000000000000000000, 6.829619984160656500E-018 ) ) ;
#243 = CYLINDRICAL_SURFACE ( 'NONE', #290, 0.05200000000000003900 ) ;
#244 = LINE ( 'NONE', #280, #294 ) ;
#245 = ADVANCED_FACE ( 'NONE', ( #282 ), #306, .F. ) ;
#246 = ORGANIZATION ( 'UNSPECIFIED', 'UNSPECIFIED', '' ) ;
#247 = CARTESIAN_POINT ( 'NONE',  ( 0.04072253460254771800, 0.0000000000000000000, 9.270647870907794200E-018 ) ) ;
#248 = CARTESIAN_POINT ( 'NONE',  ( 0.0000000000000000000, 0.0000000000000000000, 0.0000000000000000000 ) ) ;
#249 = DIRECTION ( 'NONE',  ( 0.0000000000000000000, 0.0000000000000000000, -1.000000000000000000 ) ) ;
#250 = CIRCLE ( 'NONE', #214, 0.05700000000000000900 ) ;
#251 = DIRECTION ( 'NONE',  ( 0.0000000000000000000, 0.0000000000000000000, -1.000000000000000000 ) ) ;
#252 = APPROVAL_DATE_TIME ( #322, #107 ) ;
#253 = CARTESIAN_POINT ( 'NONE',  ( 0.1499999999999999700, 0.0000000000000000000, 3.414809992080329000E-017 ) ) ;
#254 = PLANE ( 'NONE',  #327 ) ;
#255 = AXIS2_PLACEMENT_3D ( 'NONE', #97, #126, #319 ) ;
#256 = ORIENTED_EDGE ( 'NONE', *, *, #72, .F. ) ;
#257 = CARTESIAN_POINT ( 'NONE',  ( 0.1499999999999999900, 0.0000000000000000000, 0.0000000000000000000 ) ) ;
#258 = DATE_TIME_ROLE ( 'creation_date' ) ;
#259 = EDGE_CURVE ( 'NONE', #90, #296, #210, .T. ) ;
#260 = CARTESIAN_POINT ( 'NONE',  ( 0.1499999999999999900, 1.040949779275249900E-017, -0.08499999999999999200 ) ) ;
#261 = DIRECTION ( 'NONE',  ( -2.246585521105479500E-016, 0.0000000000000000000, 1.000000000000000000 ) ) ;
#262 = EDGE_LOOP ( 'NONE', ( #6, #159 ) ) ;
#263 = DIRECTION ( 'NONE',  ( -1.641735573115542100E-016, 0.0000000000000000000, 1.000000000000000000 ) ) ;
#264 = DIRECTION ( 'NONE',  ( -1.000000000000000000, -0.0000000000000000000, -2.276539994720219800E-016 ) ) ;
#265 = AXIS2_PLACEMENT_3D ( 'NONE', #144, #334, #179 ) ;
#266 = APPROVAL_PERSON_ORGANIZATION ( #342, #107, #2 ) ;
#267 = AXIS2_PLACEMENT_3D ( 'NONE', #217, #55, #249 ) ;
#268 = DIRECTION ( 'NONE',  ( 0.0000000000000000000, 0.0000000000000000000, -1.000000000000000000 ) ) ;
#269 =( CONVERSION_BASED_UNIT ( 'INCH', #136 ) LENGTH_UNIT ( ) NAMED_UNIT ( #108 ) );
#270 = ORIENTED_EDGE ( 'NONE', *, *, #195, .T. ) ;
#271 = EDGE_CURVE ( 'NONE', #203, #42, #238, .T. ) ;
#272 = DESIGN_CONTEXT ( 'detailed design', #20, 'design' ) ;
#273 = ORIENTED_EDGE ( 'NONE', *, *, #25, .F. ) ;
#274 = CARTESIAN_POINT ( 'NONE',  ( 0.1499999999999999700, 0.0000000000000000000, 0.05200000000000008800 ) ) ;
#275 = ORIENTED_EDGE ( 'NONE', *, *, #299, .F. ) ;
#276 = DIRECTION ( 'NONE',  ( -3.283471146231082200E-016, 0.0000000000000000000, 1.000000000000000000 ) ) ;
#277 = EDGE_CURVE ( 'NONE', #77, #203, #93, .T. ) ;
#278 = COORDINATED_UNIVERSAL_TIME_OFFSET ( 8, 0, .BEHIND. ) ;
#279 = VECTOR ( 'NONE', #142, 39.37007874015748100 ) ;
#280 = CARTESIAN_POINT ( 'NONE',  ( 0.02999999999999997500, 0.0000000000000000000, 0.05700000000000001600 ) ) ;
#281 = ORIENTED_EDGE ( 'NONE', *, *, #41, .F. ) ;
#282 = FACE_OUTER_BOUND ( 'NONE', #138, .T. ) ;
#283 = APPLICATION_PROTOCOL_DEFINITION ( 'international standard', 'config_control_design', 1994, #313 ) ;
#284 = ORIENTED_EDGE ( 'NONE', *, *, #124, .F. ) ;
#285 = APPROVAL_ROLE ( '' ) ;
#286 = ADVANCED_FACE ( 'NONE', ( #33 ), #83, .F. ) ;
#287 = ORIENTED_EDGE ( 'NONE', *, *, #110, .F. ) ;
#288 = PERSON_AND_ORGANIZATION ( #199, #246 ) ;
#289 = DATE_AND_TIME ( #10, #80 ) ;
#290 = AXIS2_PLACEMENT_3D ( 'NONE', #193, #49, #305 ) ;
#291 = CIRCLE ( 'NONE', #240, 0.08499999999999999200 ) ;
#292 = DIRECTION ( 'NONE',  ( 1.000000000000000000, 0.0000000000000000000, 0.0000000000000000000 ) ) ;
#293 = ORIENTED_EDGE ( 'NONE', *, *, #277, .T. ) ;
#294 = VECTOR ( 'NONE', #118, 39.37007874015748100 ) ;
#295 = EDGE_CURVE ( 'NONE', #90, #348, #229, .T. ) ;
#296 = VERTEX_POINT ( 'NONE', #28 ) ;
#297 = VERTEX_POINT ( 'NONE', #52 ) ;
#298 = PERSON_AND_ORGANIZATION ( #199, #246 ) ;
#299 = EDGE_CURVE ( 'NONE', #296, #297, #216, .T. ) ;
#300 = DIRECTION ( 'NONE',  ( -1.000000000000000000, -0.0000000000000000000, -2.276539994720219800E-016 ) ) ;
#301 =( NAMED_UNIT ( * ) SI_UNIT ( $, .STERADIAN. ) SOLID_ANGLE_UNIT ( ) );
#302 = CYLINDRICAL_SURFACE ( 'NONE', #50, 0.05700000000000000900 ) ;
#303 = VERTEX_POINT ( 'NONE', #274 ) ;
#304 = COORDINATED_UNIVERSAL_TIME_OFFSET ( 8, 0, .BEHIND. ) ;
#305 = DIRECTION ( 'NONE',  ( -2.276539994720219800E-016, 0.0000000000000000000, 1.000000000000000000 ) ) ;
#306 = CYLINDRICAL_SURFACE ( 'NONE', #196, 0.05700000000000000900 ) ;
#307 = CARTESIAN_POINT ( 'NONE',  ( 0.1499999999999999900, 6.980486755139913200E-018, -0.05700000000000000900 ) ) ;
#308 = AXIS2_PLACEMENT_3D ( 'NONE', #104, #292, #125 ) ;
#309 = AXIS2_PLACEMENT_3D ( 'NONE', #115, #300, #328 ) ;
#310 = CIRCLE ( 'NONE', #265, 0.05200000000000005300 ) ;
#311 = FACE_OUTER_BOUND ( 'NONE', #336, .T. ) ;
#312 = CARTESIAN_POINT ( 'NONE',  ( 0.02999999999999999900, 6.980486755139914800E-018, -0.05700000000000000200 ) ) ;
#313 = APPLICATION_CONTEXT ( 'configuration controlled 3d designs of mechanical parts and assemblies' ) ;
#314 = EDGE_CURVE ( 'NONE', #348, #297, #291, .T. ) ;
#315 = ADVANCED_FACE ( 'NONE', ( #12 ), #38, .F. ) ;
#316 = PERSON_AND_ORGANIZATION_ROLE ( 'design_supplier' ) ;
#317 = SHAPE_DEFINITION_REPRESENTATION ( #121, #21 ) ;
#318 = EDGE_CURVE ( 'NONE', #203, #200, #73, .T. ) ;
#319 = DIRECTION ( 'NONE',  ( -2.276539994720219800E-016, 0.0000000000000000000, 1.000000000000000000 ) ) ;
#320 = CIRCLE ( 'NONE', #239, 0.05700000000000000900 ) ;
#321 = DIRECTION ( 'NONE',  ( -1.000000000000000000, -0.0000000000000000000, -0.0000000000000000000 ) ) ;
#322 = DATE_AND_TIME ( #45, #123 ) ;
#323 = EDGE_LOOP ( 'NONE', ( #7, #270, #209, #284 ) ) ;
#324 = AXIS2_PLACEMENT_3D ( 'NONE', #171, #133, #150 ) ;
#325 = DIRECTION ( 'NONE',  ( 0.0000000000000000000, 0.0000000000000000000, -1.000000000000000000 ) ) ;
#326 = AXIS2_PLACEMENT_3D ( 'NONE', #230, #156, #26 ) ;
#327 = AXIS2_PLACEMENT_3D ( 'NONE', #333, #84, #268 ) ;
#328 = DIRECTION ( 'NONE',  ( -2.246585521105479500E-016, 0.0000000000000000000, 1.000000000000000000 ) ) ;
#329 = ORIENTED_EDGE ( 'NONE', *, *, #318, .T. ) ;
#330 = CARTESIAN_POINT ( 'NONE',  ( 1.183800797254515100E-017, 6.368163355566241100E-018, -0.05200000000000003900 ) ) ;
#331 = CARTESIAN_POINT ( 'NONE',  ( 0.02999999999999998800, 0.0000000000000000000, 6.829619984160656500E-018 ) ) ;
#332 = EDGE_CURVE ( 'NONE', #221, #200, #157, .T. ) ;
#333 = CARTESIAN_POINT ( 'NONE',  ( 0.0000000000000000000, 0.0000000000000000000, 0.0000000000000000000 ) ) ;
#334 = DIRECTION ( 'NONE',  ( -1.000000000000000000, -0.0000000000000000000, -2.276539994720219800E-016 ) ) ;
#335 = CARTESIAN_POINT ( 'NONE',  ( 0.1499999999999999900, 0.0000000000000000000, 0.0000000000000000000 ) ) ;
#336 = EDGE_LOOP ( 'NONE', ( #58, #329, #212, #66 ) ) ;
#337 = MECHANICAL_CONTEXT ( 'NONE', #313, 'mechanical' ) ;
#338 = ADVANCED_FACE ( 'NONE', ( #1, #161 ), #254, .F. ) ;
#339 = PERSON_AND_ORGANIZATION_ROLE ( 'classification_officer' ) ;
#340 = EDGE_LOOP ( 'NONE', ( #3, #76 ) ) ;
#341 = CC_DESIGN_PERSON_AND_ORGANIZATION_ASSIGNMENT ( #175, #183, ( #182 ) ) ;
#342 = PERSON_AND_ORGANIZATION ( #199, #246 ) ;
#343 = AXIS2_PLACEMENT_3D ( 'NONE', #220, #57, #251 ) ;
#344 =( GEOMETRIC_REPRESENTATION_CONTEXT ( 3 ) GLOBAL_UNCERTAINTY_ASSIGNED_CONTEXT ( ( #96 ) ) GLOBAL_UNIT_ASSIGNED_CONTEXT ( ( #269, #113, #301 ) ) REPRESENTATION_CONTEXT ( 'NONE', 'WORKASPACE' ) );
#345 = CARTESIAN_POINT ( 'NONE',  ( 0.1499999999999999900, 0.0000000000000000000, 0.0000000000000000000 ) ) ;
#346 = DIRECTION ( 'NONE',  ( -1.000000000000000000, -0.0000000000000000000, -0.0000000000000000000 ) ) ;
#347 = EDGE_LOOP ( 'NONE', ( #22, #293, #224, #89 ) ) ;
#348 = VERTEX_POINT ( 'NONE', #13 ) ;
#349 = ADVANCED_FACE ( 'NONE', ( #222 ), #4, .F. ) ;
#350 = EDGE_LOOP ( 'NONE', ( #165, #59 ) ) ;
#351 = PERSON_AND_ORGANIZATION ( #199, #246 ) ;
#352 = EDGE_CURVE ( 'NONE', #42, #221, #17, .T. ) ;
ENDSEC;
END-ISO-10303-21;
