ISO-10303-21;
HEADER;
FILE_DESCRIPTION (( 'STEP AP203' ),
    '1' );
FILE_NAME ('SPC301.STEP',
    '2019-12-26T16:56:09',
    ( '' ),
    ( '' ),
    'SwSTEP 2.0',
    'SolidWorks 2018',
    '' );
FILE_SCHEMA (( 'CONFIG_CONTROL_DESIGN' ));
ENDSEC;

DATA;
#1 = PERSON_AND_ORGANIZATION ( #101, #192 ) ;
#2 = EDGE_CURVE ( 'NONE', #155, #35, #186, .T. ) ;
#3 = APPROVAL_DATE_TIME ( #154, #37 ) ;
#4 = EDGE_LOOP ( 'NONE', ( #152, #137, #41, #26 ) ) ;
#5 = DIRECTION ( 'NONE',  ( -0.0000000000000000000, -0.0000000000000000000, 1.000000000000000000 ) ) ;
#6 = EDGE_CURVE ( 'NONE', #95, #35, #140, .T. ) ;
#7 =( CONVERSION_BASED_UNIT ( 'INCH', #124 ) LENGTH_UNIT ( ) NAMED_UNIT ( #153 ) );
#8 = CLOSED_SHELL ( 'NONE', ( #62, #36, #138, #29 ) ) ;
#9 = PERSON_AND_ORGANIZATION_ROLE ( 'classification_officer' ) ;
#10 = DATE_TIME_ROLE ( 'creation_date' ) ;
#11 = PERSON_AND_ORGANIZATION_ROLE ( 'creator' ) ;
#12 = COORDINATED_UNIVERSAL_TIME_OFFSET ( 8, 0, .BEHIND. ) ;
#13 = AXIS2_PLACEMENT_3D ( 'NONE', #146, #46, #47 ) ;
#14 = CIRCLE ( 'NONE', #40, 0.03499999999999992700 ) ;
#15 = FACE_OUTER_BOUND ( 'NONE', #115, .T. ) ;
#16 = PRODUCT_DEFINITION_SHAPE ( 'NONE', 'NONE',  #167 ) ;
#17 = CC_DESIGN_APPROVAL ( #177, ( #167 ) ) ;
#18 = TOROIDAL_SURFACE ( 'NONE', #21, 0.1854999999999999705, 0.03499999999999992700 ) ;
#19 = CC_DESIGN_DATE_AND_TIME_ASSIGNMENT ( #151, #32, ( #39 ) ) ;
#20 = CARTESIAN_POINT ( 'NONE',  ( 0.0000000000000000000, 0.0000000000000000000, 0.0000000000000000000 ) ) ;
#21 = AXIS2_PLACEMENT_3D ( 'NONE', #100, #160, #163 ) ;
#22 = APPROVAL_PERSON_ORGANIZATION ( #66, #37, #148 ) ;
#23 = CARTESIAN_POINT ( 'NONE',  ( 0.0000000000000000000, 0.0000000000000000000, 0.0000000000000000000 ) ) ;
#24 = DIRECTION ( 'NONE',  ( -0.0000000000000000000, -0.0000000000000000000, 1.000000000000000000 ) ) ;
#25 = COORDINATED_UNIVERSAL_TIME_OFFSET ( 8, 0, .BEHIND. ) ;
#26 = ORIENTED_EDGE ( 'NONE', *, *, #195, .F. ) ;
#27 = AXIS2_PLACEMENT_3D ( 'NONE', #23, #5, #180 ) ;
#28 = PERSON_AND_ORGANIZATION ( #101, #192 ) ;
#29 = ADVANCED_FACE ( 'NONE', ( #15 ), #18, .T. ) ;
#30 = FACE_OUTER_BOUND ( 'NONE', #132, .T. ) ;
#31 = DIRECTION ( 'NONE',  ( 1.000000000000000000, 0.0000000000000000000, 0.0000000000000000000 ) ) ;
#32 = DATE_TIME_ROLE ( 'classification_date' ) ;
#33 = PRODUCT_DEFINITION_FORMATION_WITH_SPECIFIED_SOURCE ( 'ANY', '', #136, .NOT_KNOWN. ) ;
#34 =( LENGTH_UNIT ( ) NAMED_UNIT ( * ) SI_UNIT ( $, .METRE. ) );
#35 = VERTEX_POINT ( 'NONE', #84 ) ;
#36 = ADVANCED_FACE ( 'NONE', ( #108 ), #176, .T. ) ;
#37 = APPROVAL ( #135, 'UNSPECIFIED' ) ;
#38 = VERTEX_POINT ( 'NONE', #60 ) ;
#39 = SECURITY_CLASSIFICATION ( '', '', #76 ) ;
#40 = AXIS2_PLACEMENT_3D ( 'NONE', #102, #116, #147 ) ;
#41 = ORIENTED_EDGE ( 'NONE', *, *, #125, .T. ) ;
#42 = CARTESIAN_POINT ( 'NONE',  ( -0.1505000000000000504, 1.843093432716767118E-17, -4.286263797015725964E-18 ) ) ;
#43 = APPROVAL_DATE_TIME ( #122, #177 ) ;
#44 = DIRECTION ( 'NONE',  ( 0.0000000000000000000, -1.000000000000000000, 0.0000000000000000000 ) ) ;
#45 = TOROIDAL_SURFACE ( 'NONE', #27, 0.1854999999999999705, 0.03499999999999992700 ) ;
#46 = DIRECTION ( 'NONE',  ( -0.0000000000000000000, -0.0000000000000000000, 1.000000000000000000 ) ) ;
#47 = DIRECTION ( 'NONE',  ( 1.000000000000000000, 0.0000000000000000000, 0.0000000000000000000 ) ) ;
#48 = APPLICATION_PROTOCOL_DEFINITION ( 'international standard', 'config_control_design', 1994, #193 ) ;
#49 = PERSON_AND_ORGANIZATION_ROLE ( 'design_supplier' ) ;
#50 = LOCAL_TIME ( 8, 56, 9.000000000000000000, #86 ) ;
#51 = CARTESIAN_POINT ( 'NONE',  ( 0.2204999999999999183, 0.0000000000000000000, 0.0000000000000000000 ) ) ;
#52 = AXIS2_PLACEMENT_3D ( 'NONE', #70, #189, #194 ) ;
#53 = PERSON_AND_ORGANIZATION ( #101, #192 ) ;
#54 = FACE_OUTER_BOUND ( 'NONE', #173, .T. ) ;
#55 = UNCERTAINTY_MEASURE_WITH_UNIT (LENGTH_MEASURE( 1.000000000000000082E-05 ), #7, 'distance_accuracy_value', 'NONE');
#56 = PERSON_AND_ORGANIZATION ( #101, #192 ) ;
#57 = CC_DESIGN_DATE_AND_TIME_ASSIGNMENT ( #88, #10, ( #167 ) ) ;
#58 = DIRECTION ( 'NONE',  ( 1.000000000000000000, 0.0000000000000000000, 0.0000000000000000000 ) ) ;
#59 = ORIENTED_EDGE ( 'NONE', *, *, #81, .T. ) ;
#60 = CARTESIAN_POINT ( 'NONE',  ( -0.2204999999999999183, 2.700346192119912465E-17, 0.0000000000000000000 ) ) ;
#61 = CARTESIAN_POINT ( 'NONE',  ( 0.0000000000000000000, 0.0000000000000000000, 0.0000000000000000000 ) ) ;
#62 = ADVANCED_FACE ( 'NONE', ( #54 ), #45, .T. ) ;
#63 = CARTESIAN_POINT ( 'NONE',  ( 0.0000000000000000000, 0.0000000000000000000, 0.0000000000000000000 ) ) ;
#64 = APPLICATION_CONTEXT ( 'configuration controlled 3d designs of mechanical parts and assemblies' ) ;
#65 = AXIS2_PLACEMENT_3D ( 'NONE', #63, #168, #150 ) ;
#66 = PERSON_AND_ORGANIZATION ( #101, #192 ) ;
#67 =( GEOMETRIC_REPRESENTATION_CONTEXT ( 3 ) GLOBAL_UNCERTAINTY_ASSIGNED_CONTEXT ( ( #55 ) ) GLOBAL_UNIT_ASSIGNED_CONTEXT ( ( #7, #105, #182 ) ) REPRESENTATION_CONTEXT ( 'NONE', 'WORKASPACE' ) );
#68 = CARTESIAN_POINT ( 'NONE',  ( 0.1854999999999999705, 0.0000000000000000000, 0.0000000000000000000 ) ) ;
#69 = CIRCLE ( 'NONE', #74, 0.03499999999999993394 ) ;
#70 = CARTESIAN_POINT ( 'NONE',  ( -0.1854999999999999705, 2.271719812418339791E-17, 0.0000000000000000000 ) ) ;
#71 = CC_DESIGN_SECURITY_CLASSIFICATION ( #39, ( #33 ) ) ;
#72 = DIRECTION ( 'NONE',  ( 0.0000000000000000000, 0.0000000000000000000, -1.000000000000000000 ) ) ;
#73 = ORIENTED_EDGE ( 'NONE', *, *, #128, .T. ) ;
#74 = AXIS2_PLACEMENT_3D ( 'NONE', #141, #175, #159 ) ;
#75 = APPROVAL_STATUS ( 'not_yet_approved' ) ;
#76 = SECURITY_CLASSIFICATION_LEVEL ( 'unclassified' ) ;
#77 = APPROVAL_PERSON_ORGANIZATION ( #56, #171, #106 ) ;
#78 = LOCAL_TIME ( 8, 56, 9.000000000000000000, #12 ) ;
#79 = ORIENTED_EDGE ( 'NONE', *, *, #81, .F. ) ;
#80 = CALENDAR_DATE ( 2019, 26, 12 ) ;
#81 = EDGE_CURVE ( 'NONE', #35, #155, #14, .T. ) ;
#82 = MANIFOLD_SOLID_BREP ( 'Revolve1', #8 ) ;
#83 = ORIENTED_EDGE ( 'NONE', *, *, #195, .T. ) ;
#84 = CARTESIAN_POINT ( 'NONE',  ( 0.1505000000000000504, 0.0000000000000000000, -4.286263797015725964E-18 ) ) ;
#85 = DIRECTION ( 'NONE',  ( -0.0000000000000000000, -0.0000000000000000000, 1.000000000000000000 ) ) ;
#86 = COORDINATED_UNIVERSAL_TIME_OFFSET ( 8, 0, .BEHIND. ) ;
#87 = DIRECTION ( 'NONE',  ( -0.0000000000000000000, -0.0000000000000000000, 1.000000000000000000 ) ) ;
#88 = DATE_AND_TIME ( #127, #50 ) ;
#89 = CC_DESIGN_APPROVAL ( #37, ( #39 ) ) ;
#90 = DIRECTION ( 'NONE',  ( 1.000000000000000000, 0.0000000000000000000, 0.0000000000000000000 ) ) ;
#91 = COORDINATED_UNIVERSAL_TIME_OFFSET ( 8, 0, .BEHIND. ) ;
#92 = ORIENTED_EDGE ( 'NONE', *, *, #104, .F. ) ;
#93 = ORIENTED_EDGE ( 'NONE', *, *, #6, .F. ) ;
#94 = CC_DESIGN_PERSON_AND_ORGANIZATION_ASSIGNMENT ( #28, #49, ( #33 ) ) ;
#95 = VERTEX_POINT ( 'NONE', #42 ) ;
#96 = AXIS2_PLACEMENT_3D ( 'NONE', #68, #44, #72 ) ;
#97 = CIRCLE ( 'NONE', #52, 0.03499999999999993394 ) ;
#98 = PRODUCT_RELATED_PRODUCT_CATEGORY ( 'detail', '', ( #136 ) ) ;
#99 = CIRCLE ( 'NONE', #114, 0.2204999999999999183 ) ;
#100 = CARTESIAN_POINT ( 'NONE',  ( 0.0000000000000000000, 0.0000000000000000000, 0.0000000000000000000 ) ) ;
#101 = PERSON ( 'UNSPECIFIED', 'UNSPECIFIED', 'UNSPECIFIED', ('UNSPECIFIED'), ('UNSPECIFIED'), ('UNSPECIFIED') ) ;
#102 = CARTESIAN_POINT ( 'NONE',  ( 0.1854999999999999705, 0.0000000000000000000, 0.0000000000000000000 ) ) ;
#103 = CARTESIAN_POINT ( 'NONE',  ( 0.0000000000000000000, 0.0000000000000000000, 0.0000000000000000000 ) ) ;
#104 = EDGE_CURVE ( 'NONE', #155, #38, #145, .T. ) ;
#105 =( NAMED_UNIT ( * ) PLANE_ANGLE_UNIT ( ) SI_UNIT ( $, .RADIAN. ) );
#106 = APPROVAL_ROLE ( '' ) ;
#107 = ORIENTED_EDGE ( 'NONE', *, *, #112, .F. ) ;
#108 = FACE_OUTER_BOUND ( 'NONE', #4, .T. ) ;
#109 = DESIGN_CONTEXT ( 'detailed design', #193, 'design' ) ;
#110 = CALENDAR_DATE ( 2019, 26, 12 ) ;
#111 = ORIENTED_EDGE ( 'NONE', *, *, #6, .T. ) ;
#112 = EDGE_CURVE ( 'NONE', #95, #38, #69, .T. ) ;
#113 = LOCAL_TIME ( 8, 56, 9.000000000000000000, #25 ) ;
#114 = AXIS2_PLACEMENT_3D ( 'NONE', #103, #119, #31 ) ;
#115 = EDGE_LOOP ( 'NONE', ( #142, #107, #111, #59 ) ) ;
#116 = DIRECTION ( 'NONE',  ( 0.0000000000000000000, -1.000000000000000000, 0.0000000000000000000 ) ) ;
#117 = APPROVAL_DATE_TIME ( #178, #171 ) ;
#118 = COORDINATED_UNIVERSAL_TIME_OFFSET ( 8, 0, .BEHIND. ) ;
#119 = DIRECTION ( 'NONE',  ( -0.0000000000000000000, -0.0000000000000000000, 1.000000000000000000 ) ) ;
#120 = DIRECTION ( 'NONE',  ( 1.000000000000000000, 0.0000000000000000000, 0.0000000000000000000 ) ) ;
#121 = LOCAL_TIME ( 8, 56, 9.000000000000000000, #91 ) ;
#122 = DATE_AND_TIME ( #80, #157 ) ;
#123 = CC_DESIGN_PERSON_AND_ORGANIZATION_ASSIGNMENT ( #196, #165, ( #136 ) ) ;
#124 = LENGTH_MEASURE_WITH_UNIT ( LENGTH_MEASURE( 0.02539999999999999897 ), #34 );
#125 = EDGE_CURVE ( 'NONE', #38, #95, #97, .T. ) ;
#126 = DIRECTION ( 'NONE',  ( 1.000000000000000000, 0.0000000000000000000, 0.0000000000000000000 ) ) ;
#127 = CALENDAR_DATE ( 2019, 26, 12 ) ;
#128 = EDGE_CURVE ( 'NONE', #38, #155, #99, .T. ) ;
#129 = CIRCLE ( 'NONE', #144, 0.1505000000000000504 ) ;
#130 = CC_DESIGN_PERSON_AND_ORGANIZATION_ASSIGNMENT ( #1, #11, ( #33 ) ) ;
#131 = APPLICATION_PROTOCOL_DEFINITION ( 'international standard', 'config_control_design', 1994, #64 ) ;
#132 = EDGE_LOOP ( 'NONE', ( #92, #79, #83, #183 ) ) ;
#133 = AXIS2_PLACEMENT_3D ( 'NONE', #61, #85, #58 ) ;
#134 = MECHANICAL_CONTEXT ( 'NONE', #64, 'mechanical' ) ;
#135 = APPROVAL_STATUS ( 'not_yet_approved' ) ;
#136 = PRODUCT ( 'SPC301', 'SPC301', '', ( #134 ) ) ;
#137 = ORIENTED_EDGE ( 'NONE', *, *, #104, .T. ) ;
#138 = ADVANCED_FACE ( 'NONE', ( #30 ), #179, .T. ) ;
#139 = AXIS2_PLACEMENT_3D ( 'NONE', #20, #24, #126 ) ;
#140 = CIRCLE ( 'NONE', #13, 0.1505000000000000504 ) ;
#141 = CARTESIAN_POINT ( 'NONE',  ( -0.1854999999999999705, 2.271719812418339791E-17, 0.0000000000000000000 ) ) ;
#142 = ORIENTED_EDGE ( 'NONE', *, *, #128, .F. ) ;
#143 = ADVANCED_BREP_SHAPE_REPRESENTATION ( 'SPC301', ( #82, #65 ), #67 ) ;
#144 = AXIS2_PLACEMENT_3D ( 'NONE', #149, #87, #120 ) ;
#145 = CIRCLE ( 'NONE', #139, 0.2204999999999999183 ) ;
#146 = CARTESIAN_POINT ( 'NONE',  ( 0.0000000000000000000, 0.0000000000000000000, -4.286263797015726734E-18 ) ) ;
#147 = DIRECTION ( 'NONE',  ( 0.0000000000000000000, 0.0000000000000000000, -1.000000000000000000 ) ) ;
#148 = APPROVAL_ROLE ( '' ) ;
#149 = CARTESIAN_POINT ( 'NONE',  ( 0.0000000000000000000, 0.0000000000000000000, -4.286263797015726734E-18 ) ) ;
#150 = DIRECTION ( 'NONE',  ( 1.000000000000000000, 0.0000000000000000000, 0.0000000000000000000 ) ) ;
#151 = DATE_AND_TIME ( #156, #121 ) ;
#152 = ORIENTED_EDGE ( 'NONE', *, *, #2, .F. ) ;
#153 = DIMENSIONAL_EXPONENTS ( 1.000000000000000000, 0.0000000000000000000, 0.0000000000000000000, 0.0000000000000000000, 0.0000000000000000000, 0.0000000000000000000, 0.0000000000000000000 ) ;
#154 = DATE_AND_TIME ( #110, #113 ) ;
#155 = VERTEX_POINT ( 'NONE', #51 ) ;
#156 = CALENDAR_DATE ( 2019, 26, 12 ) ;
#157 = LOCAL_TIME ( 8, 56, 9.000000000000000000, #118 ) ;
#158 = CC_DESIGN_PERSON_AND_ORGANIZATION_ASSIGNMENT ( #53, #9, ( #39 ) ) ;
#159 = DIRECTION ( 'NONE',  ( -1.000000000000000000, 1.224646799147352714E-16, 0.0000000000000000000 ) ) ;
#160 = DIRECTION ( 'NONE',  ( -0.0000000000000000000, -0.0000000000000000000, 1.000000000000000000 ) ) ;
#161 = PERSON_AND_ORGANIZATION ( #101, #192 ) ;
#162 = CC_DESIGN_PERSON_AND_ORGANIZATION_ASSIGNMENT ( #170, #181, ( #167 ) ) ;
#163 = DIRECTION ( 'NONE',  ( 1.000000000000000000, 0.0000000000000000000, 0.0000000000000000000 ) ) ;
#164 = APPROVAL_ROLE ( '' ) ;
#165 = PERSON_AND_ORGANIZATION_ROLE ( 'design_owner' ) ;
#166 = APPROVAL_PERSON_ORGANIZATION ( #161, #177, #164 ) ;
#167 = PRODUCT_DEFINITION ( 'UNKNOWN', '', #33, #109 ) ;
#168 = DIRECTION ( 'NONE',  ( 0.0000000000000000000, 0.0000000000000000000, 1.000000000000000000 ) ) ;
#169 = APPROVAL_STATUS ( 'not_yet_approved' ) ;
#170 = PERSON_AND_ORGANIZATION ( #101, #192 ) ;
#171 = APPROVAL ( #169, 'UNSPECIFIED' ) ;
#172 = CALENDAR_DATE ( 2019, 26, 12 ) ;
#173 = EDGE_LOOP ( 'NONE', ( #190, #73, #191, #93 ) ) ;
#174 = CARTESIAN_POINT ( 'NONE',  ( 0.0000000000000000000, 0.0000000000000000000, 0.0000000000000000000 ) ) ;
#175 = DIRECTION ( 'NONE',  ( 1.224646799147353207E-16, 1.000000000000000000, 0.0000000000000000000 ) ) ;
#176 = TOROIDAL_SURFACE ( 'NONE', #133, 0.1854999999999999705, 0.03499999999999992700 ) ;
#177 = APPROVAL ( #75, 'UNSPECIFIED' ) ;
#178 = DATE_AND_TIME ( #172, #78 ) ;
#179 = TOROIDAL_SURFACE ( 'NONE', #185, 0.1854999999999999705, 0.03499999999999992700 ) ;
#180 = DIRECTION ( 'NONE',  ( 1.000000000000000000, 0.0000000000000000000, 0.0000000000000000000 ) ) ;
#181 = PERSON_AND_ORGANIZATION_ROLE ( 'creator' ) ;
#182 =( NAMED_UNIT ( * ) SI_UNIT ( $, .STERADIAN. ) SOLID_ANGLE_UNIT ( ) );
#183 = ORIENTED_EDGE ( 'NONE', *, *, #112, .T. ) ;
#184 = CC_DESIGN_APPROVAL ( #171, ( #33 ) ) ;
#185 = AXIS2_PLACEMENT_3D ( 'NONE', #174, #188, #90 ) ;
#186 = CIRCLE ( 'NONE', #96, 0.03499999999999992700 ) ;
#187 = SHAPE_DEFINITION_REPRESENTATION ( #16, #143 ) ;
#188 = DIRECTION ( 'NONE',  ( -0.0000000000000000000, -0.0000000000000000000, 1.000000000000000000 ) ) ;
#189 = DIRECTION ( 'NONE',  ( 1.224646799147353207E-16, 1.000000000000000000, 0.0000000000000000000 ) ) ;
#190 = ORIENTED_EDGE ( 'NONE', *, *, #125, .F. ) ;
#191 = ORIENTED_EDGE ( 'NONE', *, *, #2, .T. ) ;
#192 = ORGANIZATION ( 'UNSPECIFIED', 'UNSPECIFIED', '' ) ;
#193 = APPLICATION_CONTEXT ( 'configuration controlled 3d designs of mechanical parts and assemblies' ) ;
#194 = DIRECTION ( 'NONE',  ( -1.000000000000000000, 1.224646799147352714E-16, 0.0000000000000000000 ) ) ;
#195 = EDGE_CURVE ( 'NONE', #35, #95, #129, .T. ) ;
#196 = PERSON_AND_ORGANIZATION ( #101, #192 ) ;
ENDSEC;
END-ISO-10303-21;
