ISO-10303-21;
HEADER;
FILE_DESCRIPTION (( 'STEP AP203' ),
    '1' );
FILE_NAME ('VAOL-S6SB4.STEP',
    '2017-11-22T22:19:16',
    ( '' ),
    ( '' ),
    'SwSTEP 2.0',
    'SolidWorks 2016',
    '' );
FILE_SCHEMA (( 'CONFIG_CONTROL_DESIGN' ));
ENDSEC;

DATA;
#1 = LINE ( 'NONE', #114, #225 ) ;
#2 = CARTESIAN_POINT ( 'NONE',  ( 0.0000000000000000000, 0.01968503937007873600, 0.02252083760718886400 ) ) ;
#3 = APPROVAL ( #207, 'UNSPECIFIED' ) ;
#4 = EDGE_CURVE ( 'NONE', #202, #148, #10, .T. ) ;
#5 = DIRECTION ( 'NONE',  ( 0.0000000000000000000, 0.0000000000000000000, -1.000000000000000000 ) ) ;
#6 = VECTOR ( 'NONE', #18, 39.37007874015748100 ) ;
#7 =( NAMED_UNIT ( * ) PLANE_ANGLE_UNIT ( ) SI_UNIT ( $, .RADIAN. ) );
#8 = VECTOR ( 'NONE', #120, 39.37007874015748100 ) ;
#9 = DATE_AND_TIME ( #303, #21 ) ;
#10 = LINE ( 'NONE', #135, #347 ) ;
#11 = LINE ( 'NONE', #167, #158 ) ;
#12 = ORIENTED_EDGE ( 'NONE', *, *, #258, .F. ) ;
#13 = ADVANCED_FACE ( 'NONE', ( #99 ), #308, .F. ) ;
#14 = ORIENTED_EDGE ( 'NONE', *, *, #57, .T. ) ;
#15 = VECTOR ( 'NONE', #366, 39.37007874015748100 ) ;
#16 = EDGE_LOOP ( 'NONE', ( #364, #12, #111, #144 ) ) ;
#17 = EDGE_CURVE ( 'NONE', #97, #341, #171, .T. ) ;
#18 = DIRECTION ( 'NONE',  ( -1.000000000000000000, -0.0000000000000000000, -0.0000000000000000000 ) ) ;
#19 = VERTEX_POINT ( 'NONE', #155 ) ;
#20 = CARTESIAN_POINT ( 'NONE',  ( 0.03149606299212598400, 0.01968503937007873600, 0.02252083760718886400 ) ) ;
#21 = LOCAL_TIME ( 14, 19, 16.00000000000000000, #276 ) ;
#22 = LINE ( 'NONE', #320, #8 ) ;
#23 = PERSON_AND_ORGANIZATION_ROLE ( 'creator' ) ;
#24 = VERTEX_POINT ( 'NONE', #199 ) ;
#25 = CARTESIAN_POINT ( 'NONE',  ( 0.03149606299212598400, 0.01968503937007873600, 0.02252083760718886400 ) ) ;
#26 = VECTOR ( 'NONE', #362, 39.37007874015748100 ) ;
#27 = ORIENTED_EDGE ( 'NONE', *, *, #182, .T. ) ;
#28 = CARTESIAN_POINT ( 'NONE',  ( 0.0000000000000000000, 0.01968503937007873600, 0.02252083760718886400 ) ) ;
#29 = CARTESIAN_POINT ( 'NONE',  ( 0.0000000000000000000, -0.003937007874015748000, 0.03149606299212599100 ) ) ;
#30 = CARTESIAN_POINT ( 'NONE',  ( 0.03149606299212598400, 0.003937007874015748000, 0.02362204724409448800 ) ) ;
#31 = DIRECTION ( 'NONE',  ( 0.0000000000000000000, -0.0000000000000000000, -1.000000000000000000 ) ) ;
#32 = DESIGN_CONTEXT ( 'detailed design', #204, 'design' ) ;
#33 = CARTESIAN_POINT ( 'NONE',  ( 0.03149606299212598400, -0.003937007874015748000, 0.03149606299212599100 ) ) ;
#34 = EDGE_LOOP ( 'NONE', ( #365, #245, #94, #256 ) ) ;
#35 = DIRECTION ( 'NONE',  ( -1.000000000000000000, -0.0000000000000000000, -0.0000000000000000000 ) ) ;
#36 = CC_DESIGN_PERSON_AND_ORGANIZATION_ASSIGNMENT ( #107, #358, ( #291 ) ) ;
#37 = LENGTH_MEASURE_WITH_UNIT ( LENGTH_MEASURE( 0.02539999999999999900 ), #348 );
#38 = CARTESIAN_POINT ( 'NONE',  ( 0.03149606299212598400, 0.003937007874015748000, 0.03149606299212599100 ) ) ;
#39 = DATE_AND_TIME ( #197, #326 ) ;
#40 = CARTESIAN_POINT ( 'NONE',  ( 0.0000000000000000000, 0.01968503937007873600, -0.02252083760718886400 ) ) ;
#41 = EDGE_CURVE ( 'NONE', #19, #24, #329, .T. ) ;
#42 = CALENDAR_DATE ( 2017, 22, 11 ) ;
#43 = ORIENTED_EDGE ( 'NONE', *, *, #126, .T. ) ;
#44 = ORIENTED_EDGE ( 'NONE', *, *, #193, .T. ) ;
#45 = LINE ( 'NONE', #30, #321 ) ;
#46 = ADVANCED_FACE ( 'NONE', ( #95 ), #73, .F. ) ;
#47 = AXIS2_PLACEMENT_3D ( 'NONE', #33, #342, #189 ) ;
#48 = DATE_AND_TIME ( #42, #337 ) ;
#49 = EDGE_CURVE ( 'NONE', #194, #127, #22, .T. ) ;
#50 = LOCAL_TIME ( 14, 19, 16.00000000000000000, #198 ) ;
#51 = VERTEX_POINT ( 'NONE', #363 ) ;
#52 = PERSON ( 'UNSPECIFIED', 'UNSPECIFIED', 'UNSPECIFIED', ('UNSPECIFIED'), ('UNSPECIFIED'), ('UNSPECIFIED') ) ;
#53 = APPROVAL_STATUS ( 'not_yet_approved' ) ;
#54 = LINE ( 'NONE', #184, #26 ) ;
#55 = CC_DESIGN_APPROVAL ( #67, ( #213 ) ) ;
#56 = MECHANICAL_CONTEXT ( 'NONE', #79, 'mechanical' ) ;
#57 = EDGE_CURVE ( 'NONE', #127, #97, #302, .T. ) ;
#58 = DIRECTION ( 'NONE',  ( 0.0000000000000000000, -0.0000000000000000000, -1.000000000000000000 ) ) ;
#59 = LINE ( 'NONE', #372, #146 ) ;
#60 = CARTESIAN_POINT ( 'NONE',  ( 0.0000000000000000000, -0.003937007874015748000, -0.03149606299212597700 ) ) ;
#61 = PERSON_AND_ORGANIZATION ( #52, #338 ) ;
#62 = CARTESIAN_POINT ( 'NONE',  ( 0.03149606299212598400, 0.01968503937007873600, 0.02252083760718886400 ) ) ;
#63 = ORIENTED_EDGE ( 'NONE', *, *, #346, .T. ) ;
#64 = CARTESIAN_POINT ( 'NONE',  ( 0.03149606299212598400, 0.003937007874015748000, -0.02362204724409448800 ) ) ;
#65 = EDGE_LOOP ( 'NONE', ( #151, #163, #76, #208 ) ) ;
#66 = DIRECTION ( 'NONE',  ( 0.0000000000000000000, 0.0000000000000000000, -1.000000000000000000 ) ) ;
#67 = APPROVAL ( #105, 'UNSPECIFIED' ) ;
#68 = ORIENTED_EDGE ( 'NONE', *, *, #269, .F. ) ;
#69 = PERSON_AND_ORGANIZATION ( #52, #338 ) ;
#70 = DIRECTION ( 'NONE',  ( -0.0000000000000000000, 0.9975640502598244200, 0.06975647374412191600 ) ) ;
#71 = CARTESIAN_POINT ( 'NONE',  ( 0.03149606299212598400, 0.01968503937007873600, -0.02252083760718886400 ) ) ;
#72 = ORIENTED_EDGE ( 'NONE', *, *, #360, .F. ) ;
#73 = PLANE ( 'NONE',  #226 ) ;
#74 = VECTOR ( 'NONE', #369, 39.37007874015748100 ) ;
#75 = PERSON_AND_ORGANIZATION_ROLE ( 'creator' ) ;
#76 = ORIENTED_EDGE ( 'NONE', *, *, #176, .F. ) ;
#77 = CARTESIAN_POINT ( 'NONE',  ( 0.03149606299212598400, 0.01968503937007873600, -0.02252083760718886400 ) ) ;
#78 = AXIS2_PLACEMENT_3D ( 'NONE', #112, #281, #88 ) ;
#79 = APPLICATION_CONTEXT ( 'configuration controlled 3d designs of mechanical parts and assemblies' ) ;
#80 = CC_DESIGN_APPROVAL ( #119, ( #291 ) ) ;
#81 = EDGE_LOOP ( 'NONE', ( #98, #177, #157, #27 ) ) ;
#82 = CARTESIAN_POINT ( 'NONE',  ( 0.03149606299212598400, 0.003937007874015748000, 0.03149606299212599100 ) ) ;
#83 = DIRECTION ( 'NONE',  ( 0.0000000000000000000, 0.0000000000000000000, 1.000000000000000000 ) ) ;
#84 = APPROVAL_DATE_TIME ( #9, #3 ) ;
#85 = CARTESIAN_POINT ( 'NONE',  ( 0.0000000000000000000, 0.003937007874015748000, 0.02362204724409448800 ) ) ;
#86 = LINE ( 'NONE', #60, #293 ) ;
#87 = DIRECTION ( 'NONE',  ( -1.000000000000000000, -0.0000000000000000000, -0.0000000000000000000 ) ) ;
#88 = DIRECTION ( 'NONE',  ( 0.0000000000000000000, 0.9975640502598245300, -0.06975647374412191600 ) ) ;
#89 = EDGE_LOOP ( 'NONE', ( #359, #241, #72, #206 ) ) ;
#90 = DIRECTION ( 'NONE',  ( -0.0000000000000000000, -0.9975640502598244200, 0.06975647374412191600 ) ) ;
#91 = LINE ( 'NONE', #140, #139 ) ;
#92 = CARTESIAN_POINT ( 'NONE',  ( 0.0000000000000000000, -0.003937007874015748000, 0.03149606299212599100 ) ) ;
#93 = PLANE ( 'NONE',  #150 ) ;
#94 = ORIENTED_EDGE ( 'NONE', *, *, #57, .F. ) ;
#95 = FACE_OUTER_BOUND ( 'NONE', #188, .T. ) ;
#96 = PLANE ( 'NONE',  #181 ) ;
#97 = VERTEX_POINT ( 'NONE', #288 ) ;
#98 = ORIENTED_EDGE ( 'NONE', *, *, #152, .T. ) ;
#99 = FACE_OUTER_BOUND ( 'NONE', #34, .T. ) ;
#100 = FACE_OUTER_BOUND ( 'NONE', #65, .T. ) ;
#101 = ADVANCED_FACE ( 'NONE', ( #240 ), #96, .T. ) ;
#102 = EDGE_CURVE ( 'NONE', #328, #24, #280, .T. ) ;
#103 = LINE ( 'NONE', #38, #210 ) ;
#104 =( GEOMETRIC_REPRESENTATION_CONTEXT ( 3 ) GLOBAL_UNCERTAINTY_ASSIGNED_CONTEXT ( ( #332 ) ) GLOBAL_UNIT_ASSIGNED_CONTEXT ( ( #172, #7, #294 ) ) REPRESENTATION_CONTEXT ( 'NONE', 'WORKASPACE' ) );
#105 = APPROVAL_STATUS ( 'not_yet_approved' ) ;
#106 = DIRECTION ( 'NONE',  ( 0.0000000000000000000, -0.06975647374412191600, 0.9975640502598245300 ) ) ;
#107 = PERSON_AND_ORGANIZATION ( #52, #338 ) ;
#108 = APPROVAL_PERSON_ORGANIZATION ( #349, #119, #212 ) ;
#109 = DATE_AND_TIME ( #289, #287 ) ;
#110 = CARTESIAN_POINT ( 'NONE',  ( 0.03149606299212598400, 0.003937007874015748000, -0.02362204724409448800 ) ) ;
#111 = ORIENTED_EDGE ( 'NONE', *, *, #49, .F. ) ;
#112 = CARTESIAN_POINT ( 'NONE',  ( 0.03149606299212598400, 0.003937007874015748000, 0.02362204724409448800 ) ) ;
#113 = VECTOR ( 'NONE', #186, 39.37007874015748100 ) ;
#114 = CARTESIAN_POINT ( 'NONE',  ( 0.0000000000000000000, 0.003937007874015748000, 0.02362204724409448800 ) ) ;
#115 = COORDINATED_UNIVERSAL_TIME_OFFSET ( 8, 0, .BEHIND. ) ;
#116 = AXIS2_PLACEMENT_3D ( 'NONE', #143, #117, #284 ) ;
#117 = DIRECTION ( 'NONE',  ( 0.0000000000000000000, 0.0000000000000000000, -1.000000000000000000 ) ) ;
#118 = DIRECTION ( 'NONE',  ( 0.0000000000000000000, -0.0000000000000000000, -1.000000000000000000 ) ) ;
#119 = APPROVAL ( #53, 'UNSPECIFIED' ) ;
#120 = DIRECTION ( 'NONE',  ( -0.0000000000000000000, -0.0000000000000000000, 1.000000000000000000 ) ) ;
#121 = CALENDAR_DATE ( 2017, 22, 11 ) ;
#122 = AXIS2_PLACEMENT_3D ( 'NONE', #314, #83, #239 ) ;
#123 = LINE ( 'NONE', #110, #218 ) ;
#124 = ADVANCED_FACE ( 'NONE', ( #233 ), #93, .F. ) ;
#125 = CC_DESIGN_SECURITY_CLASSIFICATION ( #350, ( #291 ) ) ;
#126 = EDGE_CURVE ( 'NONE', #148, #356, #285, .T. ) ;
#127 = VERTEX_POINT ( 'NONE', #195 ) ;
#128 = PRODUCT ( 'VAOL-S6SB4', 'VAOL-S6SB4', '', ( #56 ) ) ;
#129 = COORDINATED_UNIVERSAL_TIME_OFFSET ( 8, 0, .BEHIND. ) ;
#130 = APPROVAL_DATE_TIME ( #109, #119 ) ;
#131 = DIRECTION ( 'NONE',  ( 1.000000000000000000, 0.0000000000000000000, 0.0000000000000000000 ) ) ;
#132 = CC_DESIGN_DATE_AND_TIME_ASSIGNMENT ( #48, #235, ( #213 ) ) ;
#133 = ORIENTED_EDGE ( 'NONE', *, *, #102, .F. ) ;
#134 = APPROVAL_ROLE ( '' ) ;
#135 = CARTESIAN_POINT ( 'NONE',  ( 0.0000000000000000000, 0.01968503937007873600, -0.02252083760718886400 ) ) ;
#136 = DIRECTION ( 'NONE',  ( 0.0000000000000000000, 0.0000000000000000000, 1.000000000000000000 ) ) ;
#137 = CARTESIAN_POINT ( 'NONE',  ( 0.0000000000000000000, 0.0000000000000000000, 0.0000000000000000000 ) ) ;
#138 = ORIENTED_EDGE ( 'NONE', *, *, #4, .F. ) ;
#139 = VECTOR ( 'NONE', #340, 39.37007874015748100 ) ;
#140 = CARTESIAN_POINT ( 'NONE',  ( 0.0000000000000000000, 0.003937007874015748000, 0.03149606299212599100 ) ) ;
#141 = AXIS2_PLACEMENT_3D ( 'NONE', #82, #238, #58 ) ;
#142 = PLANE ( 'NONE',  #47 ) ;
#143 = CARTESIAN_POINT ( 'NONE',  ( 0.03149606299212598400, -0.003937007874015748000, 0.03149606299212599100 ) ) ;
#144 = ORIENTED_EDGE ( 'NONE', *, *, #272, .T. ) ;
#145 = ORIENTED_EDGE ( 'NONE', *, *, #17, .F. ) ;
#146 = VECTOR ( 'NONE', #192, 39.37007874015748100 ) ;
#147 = LINE ( 'NONE', #62, #113 ) ;
#148 = VERTEX_POINT ( 'NONE', #40 ) ;
#149 = ADVANCED_FACE ( 'NONE', ( #274 ), #318, .F. ) ;
#150 = AXIS2_PLACEMENT_3D ( 'NONE', #170, #252, #66 ) ;
#151 = ORIENTED_EDGE ( 'NONE', *, *, #102, .T. ) ;
#152 = EDGE_CURVE ( 'NONE', #254, #328, #262, .T. ) ;
#153 = EDGE_LOOP ( 'NONE', ( #316, #14, #246, #297, #232, #44, #223, #306 ) ) ;
#154 = VERTEX_POINT ( 'NONE', #224 ) ;
#155 = CARTESIAN_POINT ( 'NONE',  ( 0.03149606299212598400, -0.003937007874015748000, -0.03149606299212597700 ) ) ;
#156 = AXIS2_PLACEMENT_3D ( 'NONE', #77, #106, #214 ) ;
#157 = ORIENTED_EDGE ( 'NONE', *, *, #193, .F. ) ;
#158 = VECTOR ( 'NONE', #35, 39.37007874015748100 ) ;
#159 = DIRECTION ( 'NONE',  ( -1.000000000000000000, -0.0000000000000000000, -0.0000000000000000000 ) ) ;
#160 = CARTESIAN_POINT ( 'NONE',  ( 0.03149606299212598400, 0.01968503937007873600, 0.02252083760718886400 ) ) ;
#161 = DIRECTION ( 'NONE',  ( -0.0000000000000000000, -0.9975640502598244200, 0.06975647374412191600 ) ) ;
#162 = VECTOR ( 'NONE', #228, 39.37007874015748100 ) ;
#163 = ORIENTED_EDGE ( 'NONE', *, *, #41, .F. ) ;
#164 = CARTESIAN_POINT ( 'NONE',  ( 0.03149606299212598400, 0.0000000000000000000, 0.0000000000000000000 ) ) ;
#165 = ORIENTED_EDGE ( 'NONE', *, *, #126, .F. ) ;
#166 = VECTOR ( 'NONE', #159, 39.37007874015748100 ) ;
#167 = CARTESIAN_POINT ( 'NONE',  ( 0.03149606299212598400, 0.01968503937007873600, -0.02252083760718886400 ) ) ;
#168 = DIRECTION ( 'NONE',  ( -0.0000000000000000000, -0.0000000000000000000, 1.000000000000000000 ) ) ;
#169 = EDGE_LOOP ( 'NONE', ( #221, #299, #234, #282 ) ) ;
#170 = CARTESIAN_POINT ( 'NONE',  ( 0.0000000000000000000, 0.0000000000000000000, 0.0000000000000000000 ) ) ;
#171 = LINE ( 'NONE', #25, #162 ) ;
#172 =( CONVERSION_BASED_UNIT ( 'INCH', #37 ) LENGTH_UNIT ( ) NAMED_UNIT ( #296 ) );
#173 = LINE ( 'NONE', #249, #227 ) ;
#174 = PERSON_AND_ORGANIZATION ( #52, #338 ) ;
#175 = COORDINATED_UNIVERSAL_TIME_OFFSET ( 8, 0, .BEHIND. ) ;
#176 = EDGE_CURVE ( 'NONE', #51, #19, #59, .T. ) ;
#177 = ORIENTED_EDGE ( 'NONE', *, *, #353, .F. ) ;
#178 = SECURITY_CLASSIFICATION_LEVEL ( 'unclassified' ) ;
#179 = LINE ( 'NONE', #334, #267 ) ;
#180 = APPLICATION_PROTOCOL_DEFINITION ( 'international standard', 'config_control_design', 1994, #79 ) ;
#181 = AXIS2_PLACEMENT_3D ( 'NONE', #164, #196, #5 ) ;
#182 = EDGE_CURVE ( 'NONE', #154, #254, #103, .T. ) ;
#183 = VECTOR ( 'NONE', #345, 39.37007874015748100 ) ;
#184 = CARTESIAN_POINT ( 'NONE',  ( 0.03149606299212598400, 0.003937007874015748000, 0.02362204724409448800 ) ) ;
#185 = PERSON_AND_ORGANIZATION ( #52, #338 ) ;
#186 = DIRECTION ( 'NONE',  ( -1.000000000000000000, -0.0000000000000000000, -0.0000000000000000000 ) ) ;
#187 = CARTESIAN_POINT ( 'NONE',  ( 0.0000000000000000000, 0.003937007874015748000, -0.02362204724409448800 ) ) ;
#188 = EDGE_LOOP ( 'NONE', ( #43, #216, #145, #371 ) ) ;
#189 = DIRECTION ( 'NONE',  ( 0.0000000000000000000, -0.0000000000000000000, 1.000000000000000000 ) ) ;
#190 = EDGE_CURVE ( 'NONE', #356, #311, #1, .T. ) ;
#191 = PLANE ( 'NONE',  #78 ) ;
#192 = DIRECTION ( 'NONE',  ( 0.0000000000000000000, 0.0000000000000000000, -1.000000000000000000 ) ) ;
#193 = EDGE_CURVE ( 'NONE', #154, #51, #173, .T. ) ;
#194 = VERTEX_POINT ( 'NONE', #283 ) ;
#195 = CARTESIAN_POINT ( 'NONE',  ( 0.03149606299212598400, 0.003937007874015748000, -0.02362204724409448800 ) ) ;
#196 = DIRECTION ( 'NONE',  ( 1.000000000000000000, -0.0000000000000000000, 0.0000000000000000000 ) ) ;
#197 = CALENDAR_DATE ( 2017, 22, 11 ) ;
#198 = COORDINATED_UNIVERSAL_TIME_OFFSET ( 8, 0, .BEHIND. ) ;
#199 = CARTESIAN_POINT ( 'NONE',  ( 0.0000000000000000000, -0.003937007874015748000, -0.03149606299212597700 ) ) ;
#200 = PERSON_AND_ORGANIZATION_ROLE ( 'design_owner' ) ;
#201 = EDGE_LOOP ( 'NONE', ( #68, #313, #133, #257, #229, #266, #165, #138 ) ) ;
#202 = VERTEX_POINT ( 'NONE', #222 ) ;
#203 = EDGE_CURVE ( 'NONE', #97, #148, #11, .T. ) ;
#204 = APPLICATION_CONTEXT ( 'configuration controlled 3d designs of mechanical parts and assemblies' ) ;
#205 = ADVANCED_FACE ( 'NONE', ( #324 ), #191, .F. ) ;
#206 = ORIENTED_EDGE ( 'NONE', *, *, #323, .T. ) ;
#207 = APPROVAL_STATUS ( 'not_yet_approved' ) ;
#208 = ORIENTED_EDGE ( 'NONE', *, *, #353, .T. ) ;
#209 = APPROVAL_PERSON_ORGANIZATION ( #61, #3, #134 ) ;
#210 = VECTOR ( 'NONE', #344, 39.37007874015748100 ) ;
#211 = LINE ( 'NONE', #361, #166 ) ;
#212 = APPROVAL_ROLE ( '' ) ;
#213 = PRODUCT_DEFINITION ( 'UNKNOWN', '', #291, #32 ) ;
#214 = DIRECTION ( 'NONE',  ( 0.0000000000000000000, -0.9975640502598245300, -0.06975647374412191600 ) ) ;
#215 = CC_DESIGN_PERSON_AND_ORGANIZATION_ASSIGNMENT ( #185, #23, ( #291 ) ) ;
#216 = ORIENTED_EDGE ( 'NONE', *, *, #305, .F. ) ;
#217 = CARTESIAN_POINT ( 'NONE',  ( 0.03149606299212598400, 0.003937007874015748000, 0.02362204724409448800 ) ) ;
#218 = VECTOR ( 'NONE', #87, 39.37007874015748100 ) ;
#219 = DIRECTION ( 'NONE',  ( 0.0000000000000000000, -1.000000000000000000, 0.0000000000000000000 ) ) ;
#220 = CARTESIAN_POINT ( 'NONE',  ( 0.0000000000000000000, 0.003937007874015748000, 0.03149606299212599100 ) ) ;
#221 = ORIENTED_EDGE ( 'NONE', *, *, #190, .T. ) ;
#222 = CARTESIAN_POINT ( 'NONE',  ( 0.0000000000000000000, 0.003937007874015748000, -0.02362204724409448800 ) ) ;
#223 = ORIENTED_EDGE ( 'NONE', *, *, #176, .T. ) ;
#224 = CARTESIAN_POINT ( 'NONE',  ( 0.03149606299212598400, 0.003937007874015748000, 0.03149606299212599100 ) ) ;
#225 = VECTOR ( 'NONE', #90, 39.37007874015748900 ) ;
#226 = AXIS2_PLACEMENT_3D ( 'NONE', #20, #265, #118 ) ;
#227 = VECTOR ( 'NONE', #248, 39.37007874015748100 ) ;
#228 = DIRECTION ( 'NONE',  ( -0.0000000000000000000, -0.0000000000000000000, 1.000000000000000000 ) ) ;
#229 = ORIENTED_EDGE ( 'NONE', *, *, #251, .F. ) ;
#230 = ADVANCED_FACE ( 'NONE', ( #100 ), #142, .F. ) ;
#231 = CC_DESIGN_PERSON_AND_ORGANIZATION_ASSIGNMENT ( #261, #75, ( #213 ) ) ;
#232 = ORIENTED_EDGE ( 'NONE', *, *, #360, .T. ) ;
#233 = FACE_OUTER_BOUND ( 'NONE', #201, .T. ) ;
#234 = ORIENTED_EDGE ( 'NONE', *, *, #309, .F. ) ;
#235 = DATE_TIME_ROLE ( 'creation_date' ) ;
#236 = CARTESIAN_POINT ( 'NONE',  ( 0.03149606299212598400, -0.003937007874015748000, -0.03149606299212597700 ) ) ;
#237 = DATE_TIME_ROLE ( 'classification_date' ) ;
#238 = DIRECTION ( 'NONE',  ( 0.0000000000000000000, -1.000000000000000000, 0.0000000000000000000 ) ) ;
#239 = DIRECTION ( 'NONE',  ( 1.000000000000000000, 0.0000000000000000000, -0.0000000000000000000 ) ) ;
#240 = FACE_OUTER_BOUND ( 'NONE', #153, .T. ) ;
#241 = ORIENTED_EDGE ( 'NONE', *, *, #182, .F. ) ;
#242 = DIRECTION ( 'NONE',  ( -1.000000000000000000, -0.0000000000000000000, -0.0000000000000000000 ) ) ;
#243 = APPROVAL_PERSON_ORGANIZATION ( #69, #67, #268 ) ;
#244 = CARTESIAN_POINT ( 'NONE',  ( 0.03149606299212598400, -0.003937007874015748000, -0.03149606299212597700 ) ) ;
#245 = ORIENTED_EDGE ( 'NONE', *, *, #203, .F. ) ;
#246 = ORIENTED_EDGE ( 'NONE', *, *, #17, .T. ) ;
#247 = FACE_OUTER_BOUND ( 'NONE', #16, .T. ) ;
#248 = DIRECTION ( 'NONE',  ( -0.0000000000000000000, -1.000000000000000000, -0.0000000000000000000 ) ) ;
#249 = CARTESIAN_POINT ( 'NONE',  ( 0.03149606299212598400, -0.003937007874015748000, 0.03149606299212599100 ) ) ;
#250 = PRODUCT_RELATED_PRODUCT_CATEGORY ( 'detail', '', ( #128 ) ) ;
#251 = EDGE_CURVE ( 'NONE', #311, #254, #91, .T. ) ;
#252 = DIRECTION ( 'NONE',  ( 1.000000000000000000, -0.0000000000000000000, 0.0000000000000000000 ) ) ;
#253 = DIRECTION ( 'NONE',  ( -0.0000000000000000000, 0.9975640502598244200, 0.06975647374412191600 ) ) ;
#254 = VERTEX_POINT ( 'NONE', #220 ) ;
#255 = APPROVAL_DATE_TIME ( #39, #67 ) ;
#256 = ORIENTED_EDGE ( 'NONE', *, *, #258, .T. ) ;
#257 = ORIENTED_EDGE ( 'NONE', *, *, #152, .F. ) ;
#258 = EDGE_CURVE ( 'NONE', #127, #202, #123, .T. ) ;
#259 = LINE ( 'NONE', #278, #330 ) ;
#260 = ADVANCED_FACE ( 'NONE', ( #247 ), #315, .F. ) ;
#261 = PERSON_AND_ORGANIZATION ( #52, #338 ) ;
#262 = LINE ( 'NONE', #92, #183 ) ;
#263 = CLOSED_SHELL ( 'NONE', ( #260, #13, #46, #205, #352, #149, #230, #322, #101, #124 ) ) ;
#264 = DATE_AND_TIME ( #121, #50 ) ;
#265 = DIRECTION ( 'NONE',  ( 0.0000000000000000000, -1.000000000000000000, 0.0000000000000000000 ) ) ;
#266 = ORIENTED_EDGE ( 'NONE', *, *, #190, .F. ) ;
#267 = VECTOR ( 'NONE', #310, 39.37007874015748100 ) ;
#268 = APPROVAL_ROLE ( '' ) ;
#269 = EDGE_CURVE ( 'NONE', #300, #202, #317, .T. ) ;
#270 = ORIENTED_EDGE ( 'NONE', *, *, #272, .F. ) ;
#271 = EDGE_CURVE ( 'NONE', #19, #194, #301, .T. ) ;
#272 = EDGE_CURVE ( 'NONE', #194, #300, #259, .T. ) ;
#273 = PERSON_AND_ORGANIZATION_ROLE ( 'classification_officer' ) ;
#274 = FACE_OUTER_BOUND ( 'NONE', #81, .T. ) ;
#275 = PERSON_AND_ORGANIZATION ( #52, #338 ) ;
#276 = COORDINATED_UNIVERSAL_TIME_OFFSET ( 8, 0, .BEHIND. ) ;
#277 = PLANE ( 'NONE',  #122 ) ;
#278 = CARTESIAN_POINT ( 'NONE',  ( 0.03149606299212598400, 0.003937007874015748000, -0.03149606299212597700 ) ) ;
#279 = ORIENTED_EDGE ( 'NONE', *, *, #271, .F. ) ;
#280 = LINE ( 'NONE', #319, #354 ) ;
#281 = DIRECTION ( 'NONE',  ( 0.0000000000000000000, -0.06975647374412191600, -0.9975640502598245300 ) ) ;
#282 = ORIENTED_EDGE ( 'NONE', *, *, #305, .T. ) ;
#283 = CARTESIAN_POINT ( 'NONE',  ( 0.03149606299212598400, 0.003937007874015748000, -0.03149606299212597700 ) ) ;
#284 = DIRECTION ( 'NONE',  ( -1.000000000000000000, 0.0000000000000000000, -0.0000000000000000000 ) ) ;
#285 = LINE ( 'NONE', #2, #292 ) ;
#286 = DIRECTION ( 'NONE',  ( 0.0000000000000000000, 0.0000000000000000000, -1.000000000000000000 ) ) ;
#287 = LOCAL_TIME ( 14, 19, 16.00000000000000000, #175 ) ;
#288 = CARTESIAN_POINT ( 'NONE',  ( 0.03149606299212598400, 0.01968503937007873600, -0.02252083760718886400 ) ) ;
#289 = CALENDAR_DATE ( 2017, 22, 11 ) ;
#290 = EDGE_LOOP ( 'NONE', ( #63, #270, #279, #357 ) ) ;
#291 = PRODUCT_DEFINITION_FORMATION_WITH_SPECIFIED_SOURCE ( 'ANY', '', #128, .NOT_KNOWN. ) ;
#292 = VECTOR ( 'NONE', #168, 39.37007874015748100 ) ;
#293 = VECTOR ( 'NONE', #312, 39.37007874015748100 ) ;
#294 =( NAMED_UNIT ( * ) SI_UNIT ( $, .STERADIAN. ) SOLID_ANGLE_UNIT ( ) );
#295 = CC_DESIGN_PERSON_AND_ORGANIZATION_ASSIGNMENT ( #275, #200, ( #128 ) ) ;
#296 = DIMENSIONAL_EXPONENTS ( 1.000000000000000000, 0.0000000000000000000, 0.0000000000000000000, 0.0000000000000000000, 0.0000000000000000000, 0.0000000000000000000, 0.0000000000000000000 ) ;
#297 = ORIENTED_EDGE ( 'NONE', *, *, #309, .T. ) ;
#298 = ADVANCED_BREP_SHAPE_REPRESENTATION ( 'VAOL-S6SB4', ( #304, #331 ), #104 ) ;
#299 = ORIENTED_EDGE ( 'NONE', *, *, #323, .F. ) ;
#300 = VERTEX_POINT ( 'NONE', #339 ) ;
#301 = LINE ( 'NONE', #244, #15 ) ;
#302 = LINE ( 'NONE', #71, #333 ) ;
#303 = CALENDAR_DATE ( 2017, 22, 11 ) ;
#304 = MANIFOLD_SOLID_BREP ( 'Boss-Extrude1', #263 ) ;
#305 = EDGE_CURVE ( 'NONE', #341, #356, #147, .T. ) ;
#306 = ORIENTED_EDGE ( 'NONE', *, *, #271, .T. ) ;
#307 = APPLICATION_PROTOCOL_DEFINITION ( 'international standard', 'config_control_design', 1994, #204 ) ;
#308 = PLANE ( 'NONE',  #156 ) ;
#309 = EDGE_CURVE ( 'NONE', #341, #325, #45, .T. ) ;
#310 = DIRECTION ( 'NONE',  ( -0.0000000000000000000, -0.0000000000000000000, 1.000000000000000000 ) ) ;
#311 = VERTEX_POINT ( 'NONE', #85 ) ;
#312 = DIRECTION ( 'NONE',  ( 0.0000000000000000000, 1.000000000000000000, 0.0000000000000000000 ) ) ;
#313 = ORIENTED_EDGE ( 'NONE', *, *, #346, .F. ) ;
#314 = CARTESIAN_POINT ( 'NONE',  ( 0.03149606299212598400, -0.003937007874015748000, -0.03149606299212597700 ) ) ;
#315 = PLANE ( 'NONE',  #370 ) ;
#316 = ORIENTED_EDGE ( 'NONE', *, *, #49, .T. ) ;
#317 = LINE ( 'NONE', #187, #74 ) ;
#318 = PLANE ( 'NONE',  #116 ) ;
#319 = CARTESIAN_POINT ( 'NONE',  ( 0.0000000000000000000, -0.003937007874015748000, 0.03149606299212599100 ) ) ;
#320 = CARTESIAN_POINT ( 'NONE',  ( 0.03149606299212598400, 0.003937007874015748000, -0.02362204724409448800 ) ) ;
#321 = VECTOR ( 'NONE', #161, 39.37007874015748900 ) ;
#322 = ADVANCED_FACE ( 'NONE', ( #368 ), #277, .F. ) ;
#323 = EDGE_CURVE ( 'NONE', #325, #311, #54, .T. ) ;
#324 = FACE_OUTER_BOUND ( 'NONE', #169, .T. ) ;
#325 = VERTEX_POINT ( 'NONE', #217 ) ;
#326 = LOCAL_TIME ( 14, 19, 16.00000000000000000, #129 ) ;
#327 = CC_DESIGN_APPROVAL ( #3, ( #350 ) ) ;
#328 = VERTEX_POINT ( 'NONE', #29 ) ;
#329 = LINE ( 'NONE', #236, #6 ) ;
#330 = VECTOR ( 'NONE', #242, 39.37007874015748100 ) ;
#331 = AXIS2_PLACEMENT_3D ( 'NONE', #137, #136, #131 ) ;
#332 = UNCERTAINTY_MEASURE_WITH_UNIT (LENGTH_MEASURE( 1.000000000000000100E-005 ), #172, 'distance_accuracy_value', 'NONE');
#333 = VECTOR ( 'NONE', #253, 39.37007874015748900 ) ;
#334 = CARTESIAN_POINT ( 'NONE',  ( 0.03149606299212598400, 0.003937007874015748000, 0.03149606299212599100 ) ) ;
#335 = PLANE ( 'NONE',  #141 ) ;
#336 = PRODUCT_DEFINITION_SHAPE ( 'NONE', 'NONE',  #213 ) ;
#337 = LOCAL_TIME ( 14, 19, 16.00000000000000000, #115 ) ;
#338 = ORGANIZATION ( 'UNSPECIFIED', 'UNSPECIFIED', '' ) ;
#339 = CARTESIAN_POINT ( 'NONE',  ( 0.0000000000000000000, 0.003937007874015748000, -0.03149606299212597700 ) ) ;
#340 = DIRECTION ( 'NONE',  ( -0.0000000000000000000, -0.0000000000000000000, 1.000000000000000000 ) ) ;
#341 = VERTEX_POINT ( 'NONE', #160 ) ;
#342 = DIRECTION ( 'NONE',  ( -0.0000000000000000000, 1.000000000000000000, 0.0000000000000000000 ) ) ;
#343 = CC_DESIGN_PERSON_AND_ORGANIZATION_ASSIGNMENT ( #174, #273, ( #350 ) ) ;
#344 = DIRECTION ( 'NONE',  ( -1.000000000000000000, -0.0000000000000000000, -0.0000000000000000000 ) ) ;
#345 = DIRECTION ( 'NONE',  ( -0.0000000000000000000, -1.000000000000000000, -0.0000000000000000000 ) ) ;
#346 = EDGE_CURVE ( 'NONE', #24, #300, #86, .T. ) ;
#347 = VECTOR ( 'NONE', #70, 39.37007874015748900 ) ;
#348 =( LENGTH_UNIT ( ) NAMED_UNIT ( * ) SI_UNIT ( $, .METRE. ) );
#349 = PERSON_AND_ORGANIZATION ( #52, #338 ) ;
#350 = SECURITY_CLASSIFICATION ( '', '', #178 ) ;
#351 = FACE_OUTER_BOUND ( 'NONE', #89, .T. ) ;
#352 = ADVANCED_FACE ( 'NONE', ( #351 ), #335, .F. ) ;
#353 = EDGE_CURVE ( 'NONE', #51, #328, #211, .T. ) ;
#354 = VECTOR ( 'NONE', #286, 39.37007874015748100 ) ;
#355 = SHAPE_DEFINITION_REPRESENTATION ( #336, #298 ) ;
#356 = VERTEX_POINT ( 'NONE', #28 ) ;
#357 = ORIENTED_EDGE ( 'NONE', *, *, #41, .T. ) ;
#358 = PERSON_AND_ORGANIZATION_ROLE ( 'design_supplier' ) ;
#359 = ORIENTED_EDGE ( 'NONE', *, *, #251, .T. ) ;
#360 = EDGE_CURVE ( 'NONE', #325, #154, #179, .T. ) ;
#361 = CARTESIAN_POINT ( 'NONE',  ( 0.03149606299212598400, -0.003937007874015748000, 0.03149606299212599100 ) ) ;
#362 = DIRECTION ( 'NONE',  ( -1.000000000000000000, -0.0000000000000000000, -0.0000000000000000000 ) ) ;
#363 = CARTESIAN_POINT ( 'NONE',  ( 0.03149606299212598400, -0.003937007874015748000, 0.03149606299212599100 ) ) ;
#364 = ORIENTED_EDGE ( 'NONE', *, *, #269, .T. ) ;
#365 = ORIENTED_EDGE ( 'NONE', *, *, #4, .T. ) ;
#366 = DIRECTION ( 'NONE',  ( 0.0000000000000000000, 1.000000000000000000, 0.0000000000000000000 ) ) ;
#367 = CC_DESIGN_DATE_AND_TIME_ASSIGNMENT ( #264, #237, ( #350 ) ) ;
#368 = FACE_OUTER_BOUND ( 'NONE', #290, .T. ) ;
#369 = DIRECTION ( 'NONE',  ( -0.0000000000000000000, -0.0000000000000000000, 1.000000000000000000 ) ) ;
#370 = AXIS2_PLACEMENT_3D ( 'NONE', #64, #219, #31 ) ;
#371 = ORIENTED_EDGE ( 'NONE', *, *, #203, .T. ) ;
#372 = CARTESIAN_POINT ( 'NONE',  ( 0.03149606299212598400, -0.003937007874015748000, 0.03149606299212599100 ) ) ;
ENDSEC;
END-ISO-10303-21;
